Guitar Tabs, Chords and Lyrics
Server problems seems to be fixed. Chordie has been experiencing problems with songs disappearing. These issues now seems to be fixed, but still verifying the fix. If you find anything strange, please email admin@chordie.com.


Who I Am Hates Who I've Been  Relient K

Who Am I Hates Who I've Been
Mhhhm
2004 Tooth And Nail Records
Submitted by: paramore_fans@yahoo.com
Key: Eb
Tuning: Standard EADGBe
Chords used:
Eb - x68886
Bb - x13331
Cm - x35543
Eb/G - 365xxx
Bb/D - x587xx
G/B - x254xx
[G#] [-] [466544]  
Intro:
 
 Guitar 1: G#--Bb--Cm--Eb x2, G#--Bb(hold)

Guitar 2: x2, Tapping, L=Left Hand, R=Right Hand
[G#] [Bb]  
 
 e|-------------------|------------------|
 B|-------------------|------------------|
 G|-3-3-12-3-10-3-8-3-|-3-3-8-3-10-3-7-3-|
 D|-------------------|------------------|
 A|-------------------|------------------|
 E|-------------------|------------------|

L L R L R L R L L L R L R L R L
[Cm] [Eb]  
 
 e|-------------------|-------------------|
 B|-------------------|-------------------|
 G|-3-3-8-3-7-3-8-3---|-10-3-12-3-7-3-8-3-|
 D|-------------------|-------------------|
 A|-------------------|-------------------|
 E|-------------------|-------------------|

L L R L R L R L R L R L R L R L
Verse 1
[Eb] I watched the proverbial sunrise
[G#] coming up over the Pacific and
[Cm] you might think I'm losing my mind
[Bb] but I will shy away from the specifics
Refrain:
cause [G#]I don't want you to [Bb]know where I [Cm]am
cause [G#]then you'll see my [Bb]heart
in the sad[Cm]dest state it's ever been
G# Bb (hold)
This is no place to try and live my life
Chorus:
[Eb] Stop right there That's e[Bb]xactly where I [Bb/D]lost it
[Eb/G] See that [G#]line. Well I [Cm]never should have [Bb]crossed it
[Eb] Stop right there Well I [Bb]never should have [Bb/D]said
that it's the [Eb/G]very moment that
I [Bb]wish that I could take back
Post Chorus:
[Eb] I'm sorry for the person I became[Bb]
[Cm] I'm sorry that it took so long for me to [Bb/D]change
[Eb] I'm ready to try and never become that way again[Bb]
[Cm] cause who I am hates who I've [G#]been
Who I [Bb]am hates who I've been
(Repeat intro)
Verse 2:
[Eb] I talk to absolutely no one
[G#] Couldn't keep to myself enough
And the [Cm]things bottled inside have finally begun
to cre[Bb]ate so much pressure that I'll soon blow up
Eb (Fm Gm Bass only)
I heard the reverberating footsteps
[G#] sinking up to the beating of my heart
[Cm] and I was positive that unless I [Bb]got myself together
I would watch me fall apart
Refrain 2:
And I [G#]can't let that [Bb]happen a[Cm]gain
cause [G#]then you'll see my [Bb]heart
in the sa[Cm]ddest state it's ever been
G# Bb (hold)
This is no place to try and live my life
Chorus 2: Piano silent
Eb(hold)
Stop right there That's exactly where I lost it
G#(hold)
See that line. Well I never should have crossed it
Cm(hold)
Stop right there Well I never should have said
Bb(hold)
that it's the very moment that
I wish that I could take back
(Repeat Chorus 1)
(Repeat Post Chorus)
Bridge: Plam mute
[Eb/G] Who I [G#]am hates who I've [Eb]been
and who I am won't take the
second chance you [G/B]gave me
[Cm] Who I [G#]am hates who I've [Eb]been
cause who I've been [Bb]only ever made me
(Repeat Post Chorus)
Outro:
Who I am [Bb]hates who I've [Eb]been
 
 Guitar 1: Cm--Eb--G#--Bb--Cm--Eb--G#-G#-Bb

Guitar 2: x2, Tapping, L=Left Hand, R=Right Hand
[Cm] [Eb]  
 
 e|-------------------|------------------|
 B|-------------------|------------------|
 G|-3-3-12-3-10-3-8-3-|-3-3-8-3-10-3-7-3-|
 D|-------------------|------------------|
 A|-------------------|------------------|
 E|-------------------|------------------|

L L R L R L R L L L R L R L R L
[G#] [Bb]  
 
 e|-------------------|-------------------|
 B|-------------------|-------------------|
 G|-3-3-8-3-7-3-8-3---|-10-3-12-3-7-3-8-3-|
 D|-------------------|-------------------|
 A|-------------------|-------------------|
 E|-------------------|-------------------|

L L R L R L R L R L R L R L R L
[Cm] [Eb] [G#] [Bb]  
 
 e|-------------------|------------------|------|----|
 B|-------------------|------------------|------|----|
 G|-3-3-12-3-10-3-8-3-|-3-3-8-3-10-3-7-3-|------|-3--|
 D|-------------------|------------------|-6--6-|-3--|
 A|-------------------|------------------|-6--6-|-1--|
 E|-------------------|------------------|-4--4-|----|

L L R L R L R L L L R L R L R L

Important: The song above is NOT stored on the Chordie server. The original song is hosted at www.guitaretab.com. Chordie works as a search engine and provides on-the-fly formatting. Chordie does not index songs against artists'/composers' will. To remove this song please click here.

Text color:
Chord color:
Chord grids: 
Font size:    
Page size: 

Bb Bb/D Cm Eb Eb/G G# G/B
Rate #1 of 11 versions

Login - add to songbook

SHARE PAGE  



You need to log in to post comments