Guitar Tabs, Chords and Lyrics
Major upgrade!! After one year development the new version of Chordie is now online! Please give feedback.


Leave  R.E.M.

Leave - R.E.M.
Album: New Adventures in Hi-Fi
Released: 1996
I think thatīs how they actually play it. There are two electric guitars. Guitar one
chords and guitar 2 plays riff and strums chords as usual.
Guitar 2 uses e-bow.
Strum = hit once and let ring
I use high gain, high reverb, high chorus and high tone to play with the album.
Intro1
(Intro Riff)
 
 e--------------------|------------------------| play
 B--------------------|--------------------| 3-|
 G--------------------|------------------------| times
 D----------4s6--3----|----------4s6-3---------| and
 A----1-3-4-----------|----1-3-4---------------| then
 E--------------------|------------------------| go on to
 e--------------------|--------------------|
 B--------------------|--------------------|
 G--------------------|--------------------|
 D----------4s6--3----|----------4s6-------|
 A----1-3-4-----------|----1-3-4------1----|
 E--------------------|--------------------|

Verse
(Main Riff)
 
 e--------------------|--------------------|
 B-----------7s9--6---|---------7s9--6h7p6-|
 G---2s3-5-6----------|-2s3-5-6------------|
 D--------------------|--------------------|
 A--------------------|--------------------|
 E--------------------|--------------------|

Intro2
Guitar 1 (strum): A#m|F#|G#|A#m|A#m|F#|G#|A#m| --> go on to verse
Guitar 2 : play main riff --> go on to verse
Verse (both guitars strum chords)
[A#m]Nothing could bring me cl[F#]oser.
[G#] [G#] [A#mG#A#m] 

Important: The song above is NOT stored on the Chordie server. The original song is hosted at www.guitaretab.com. Chordie works as a search engine and provides on-the-fly formatting. Chordie does not index songs against artists'/composers' will. To remove this song please click here.

Text color:
Chord color:
Chord grids: 
Font size:    
Page size: 

A#m F# G#
Rate #9 of 9 versions

Jango Player

Login - add to songbook

SHARE PAGE  



You need to log in to post comments