Guitar Tabs, Chords and Lyrics
Major upgrade!! After one year development the new version of Chordie is now online! Please give feedback.


Orange Crush   R.E.M.

 
 D|---------|

 


 


 Then the main riff. You play this from the beginning of the song up until "Comin' in


 me..."


 

 
 e|-0-0---0-0------0---0---0-0-----0---------------------0---------|
 B|-----0--------0---0---0-------0---0------0--------3-------3-----|
 G|-------------------------------------0-------0--2---2---2---2---|
 D|----------------------------------------------------------------|

 


 Play the above riff twice before the lyrics come in and 4x after. Then the chorus,


 instrumental the first time, then with vocals later. Play this twice:


 

 
 e|-0----0-0-------0-----------------------|
 B|----------4-----------2-2---2---2--4----|
 G|-------------4-----4--------------------|
 D|----------------------------------------|

 


 After the first chorus, revert to the main riff and play the verse again. After the


 chorus, there's a bass solo, and then the guitar solo:


 

 
 e|---------[12]---------------------------------------------------|
 B|---[12]----------------[12]-------------[7]---------------------|
 G|------------------[12]------[12]--------------------------------|
 D|------------------------------------[7]------[7]----------------|


Important: The song above is NOT stored on the Chordie server. The original song is hosted at www.guitaretab.com. Chordie works as a search engine and provides on-the-fly formatting. Chordie does not index songs against artists'/composers' will. To remove this song please click here.

This song is displayed as text-only. Transposing and tuning is only available for chordpro-songs.
Rate #4 of 16 versions

Jango Player

Login - add to songbook

SHARE PAGE  




You need to log in to post comments