Guitar Tabs, Chords and Lyrics
Major upgrade!! After one year development the new version of Chordie is now online! Please give feedback.


Suspicion  R.E.M.

R.E.M. - Suspicion
Intro
G G/Bb (3x)
[G]  
[G]Now[G/Bb] my susp[G]icion's[G/Bb] on the r[G]ise[G/Bb] [G] [G/Bb]
[G]I have k[G/Bb]nown, [G]I have [G/Bb]known your k[G]ind[G/Bb] [G] [G/Bb]
[G]Please don't [G/Bb]talk, don't m[G]ake me t[G/Bb]hink
[G]Order[G/Bb] up an[G]other d[G/Bb]rink
[G]Let me [G/Bb]let im[G]agin[G/Bb]ation dr[G]ive[G/Bb] [G]
F Faug
Can't you see, I need
[Bbmaj7]Nothing [G]too deep
[Am]Imagin[D]ation [Am]Come al[D]ive
[Am]Sus - p[D]icion [C] T[Csus2/B]onight, I'll dr[D]eam tonight
[G]Listen [G/Bb]to the d[G]evils[G/Bbm] in my [G]ear[G/Bb] [G] [G/Bb]
[G]Tell me [G/Bb]what, wh[G]at I [G/Bb]want to h[G]ear[G/Bb] [G] [G/Bb]
[G]You're so [G/Bb]funny, y[G]ou're so f[G/Bb]ine
[G]You're so [G/Bb]perfect, y[G]ou're so [G/Bb]mine
[G]That I never had an [G/Bb]opport[G]uni[G/Bb]ty to h[G]ide [G/Bb] [G] No, I never had a chance
F Faug
Can't you see, I need
[Bbmaj7]Nothing [G]too deep
[Am]Imagin[D]ation [Am]Come al[D]ive
[Am]Sus - p[D]icion [C] T[Csus2/B]onight, I'll dr[D]eam tonight
[Bb] [Am] L[C]ook into my [G]eyes
They h[Bb]ipnotize The l[Am]ights, the drinks
[F]Let the music carry you away
Solo
[G] [G/Bb] [G] [G/Bb] [G] [G/Bb] [G] [G/Bb] 
 
 E------------------------------------------------------
 B------------------------------------------------------
 G------------------------------------------------------
 D--------------------------12/10/12--10\12-10--10/5-5--
 A-----1/3-1--3/8-8--/10-8------------------------------
 E--3---------------------------------------------------

[G] [G/Bb] [G] [G/Bb] [G] [G/Bb] [G] 
 
 E-------------------------------------------------------
 B----------------------------------------------8--------
 G------------------------------------10-9/7-7--7--------
 D--------------------------12/10/12---------------------
 A-----1/3-1--3/8-8--/10-8-------------------------------
 E--3----------------------------------------------------

My [G]eyes are b[G/Bb]lurred My s[G]ights are[G/Bb] limit[G]ed[G/Bb] [G] [G/Bb]
[G]Am I [G/Bb]sensing [G]a fa[G/Bb]miliar tw[G]inge?[G/Bb] [G]
F Faug
Please, don't speak Make me think
[Bbmaj7] It's all[G] too deep
[Am]Imagin[D]ation [Am]Come al[D]ive
[Am]Sus - p[D]icion [C] Step[Csus2/B] down, I'll dr[D]eam tonight
[C]Step[Csus2/B] down, I'll dr[D]eam
[C]You're so[Csus2/B] naked, b[D]aby
[C]Carr[Csus2/B]y me away[D]
[C]Dre[Csus2/B]am, dream[D]
[C]Carr[Csus2/B]y me away[D]
[C]Dre[Csus2/B]am, dream[D]
[C]Dre[Csus2/B]am, dream[D]
[C]Dre[Csus2/B]am, dream[D]
[C]Dre[Csus2/B]am, dream[D]
Chords:
G 320033
G/Bb x10033
F x33211
Faug xx3221
Bbmaj7 x13231
Am x02210
D xx0232
C x32010
Csus2/B x20010
Bb x13331

Important: The song above is NOT stored on the Chordie server. The original song is hosted at www.guitaretab.com. Chordie works as a search engine and provides on-the-fly formatting. Chordie does not index songs against artists'/composers' will. To remove this song please click here.

Text color:
Chord color:
Chord grids: 
Font size:    
Page size: 

Am Bb Bbmaj7 C Csus2/B D F G
Rate #2 of 6 versions

Jango Player

Login - add to songbook

SHARE PAGE  




You need to log in to post comments