Guitar Tabs, Chords and Lyrics
Server problems seems to be fixed. Chordie has been experiencing problems with songs disappearing. These issues now seems to be fixed, but still verifying the fix. If you find anything strange, please email admin@chordie.com.


Color Me Impressed  The Replacements

INTRO:
[E] [E/D#] [E5] [E6] [A5] [A/G#] [A5] [A6]  
 
 e)-----------------------------------------------------------|
 B)-----------------------------------------------------------|
 G)--9-9-9-9-9-9-9-9-9-9-9-9-9-9-9-9--------------------------|
 D)--9-9-9-9-9-9-9-9-9-9-9-9-9-9-9-9-7-7-7-7-6-6-6-6-7-7-7-9--|
 A)--7-7-7-7-6-6-6-6-----------------0-0-0-0-0-0-0-0-0-0-0-0--|
 E)------------------7-7-7-7-9-9-9-9-0-0-0-0-0-0-0-0-0-0-0-0--|

Lyrics:
Now [E]every[E/D#]body [E5]at your [E6]party,
[A5]they [A/G#]don't look d[A5]epressed[A6]
E E/D% E5 E6
and when everybody is wrestlin' funny,
[A5]color [A/G#]me [A5A6]impressed
Stayin' up too late tonight,
we wont be getting sleep.
Givin' out their word,
cause that's that they wont keep
Bridge Chord: G#m, (some derivative of the last chord), E (ending)\
Like a monkey on the mirror
wont you pass the bill to Chris?
Intoxicated never ending our French kiss
Lyrics 2:
 
 e)-----------------------------|
 B)-----------------------------|
 G)----9----9----9----9---------|
 D)----9----9----9----9---------|
 A)----7----7----7----7---------|
 E)-0-0--0-0--0-0--0-0----------|

Can You Stand
[A] [A/G#] [A] [A6]  
Me on my feet?
(repeat)
(Bridge/Solo)
And everybody at you party
they don't look depressed
and when everybody is wrestlin funny
color me impressed
[E] [E/D#] [E5] [E6]  
[A]Color[A/G#] me I[A]mp[A6]ressed (3x)
Color me Impressed
{lyrics 2)
[E] [E] So Color Meeee....[E]

Important: The song above is NOT stored on the Chordie server. The original song is hosted at www.guitaretab.com. Chordie works as a search engine and provides on-the-fly formatting. Chordie does not index songs against artists'/composers' will. To remove this song please click here.

Text color:
Chord color:
Chord grids: 
Font size:    
Page size: 

A A/G# A5 A6 E E5 E6
Rate #2 of 2 versions

Login - add to songbook

SHARE PAGE  




You need to log in to post comments