Guitar Tabs, Chords and Lyrics
Server problems seems to be fixed. Chordie has been experiencing problems with songs disappearing. These issues now seems to be fixed, but still verifying the fix. If you find anything strange, please email admin@chordie.com.


Hamburg hinter uns  Revolverheld

great song by Revolverheld (german band)
Album: in Farbe (2010)
tabbed by Matzeee
questions/suggestions(no spamming or flaming) 5t4lky@web.de
intro:
(Throughout verse)
 
 e:|| ----4-------4---|----4--------4--|-------4--------|---------------- ||
 B:|| --4-- 4---4---4-|--4---4----4--4-|---4-------4----|---------------- ||
 G:||.----------------|----------------|-0---0-------0--|------6---------.||
 D:||.----------------|----------------|----------------|----6---6---8---.||
 A:|| ----------------|--------4-------|3---------------|1s4-------6---6- ||
 E:|| 1-------3-------|4---------------|----------------|---------------- ||

[F5] [G5] [G#5] [C#5] [C5] [C#5] [D#5] 
[F5]Dieser [G5]Winter hier ist [G#5]schwierig zu [C#5]ertragen
[C5] Die grauen Straßen an diesen [C#5]sonnenleeren [D#5]Tagen
[F5]Ich werd nicht [G5]warten bis es [G#5]aufhört hier zu [C#5]regnen
[C5] Ich will hier raus, weit weg, [C#5]zurück nach [D#5]Kalifornien.
Chorus:
Wir lassen [Cadd9]Hamburg hinter [G/F#]uns
Machen das [Cadd9]Leben wild und [G/F#]bunt
Auf nach Lo[Cadd9]s Angeles
[G/F#]Wir brauchen keinen [D/F#]Grund
Wir lassen [Cadd9]Hamburg hinter [G/F#]uns
Machen das [Cadd9]Leben wild und [G/F#]bunt
Auf nach Lo[Cadd9]s Angeles
[G/F#]Jetzt und ohne [D/F#]Grund
Verse:
[F5] [G5] [G#5] [C#5]  
[F5] Lass dich [G5]treiben, um nicht w[G#5]ieder nur zu [C#5]Planen
[C5] Reiß dich los, denn es ist [C#5]Zeit mal was zu [D#5]wagen
[F5] Spring über?n [G5]Schatten und fang [G#5]endlich an zu [C#5]leben
[C5] Ich will jetzt los und nicht mehr [C#5]länger drüber[D#5] reden
Chorus:
Wir lassen [Cadd9]Hamburg hinter [G/F#]uns
Machen das [Cadd9]Leben wild und [G/F#]bunt
Auf nach Lo[Cadd9]s Angeles
[G/F#]Wir brauchen keinen [D/F#]Grund
Wir lassen [Cadd9]Hamburg hinter [G/F#]uns
Machen das [Cadd9]Leben wild und [G/F#]bunt
Auf nach Lo[Cadd9]s Angeles
[G/F#]Jetzt und ohne [D/F#]Grund
Solo:
3x
 
 e:|| ----------------|---------------- ||
 B:|| 4-4-4-4-4-4-4-4-|2-2-2-2-1-1-1-1- ||
 G:||.----------------|----------------.||
 D:||.----------------|----------------.||
 A:|| ----------------|---------------- ||
 E:|| ----------------|---------------- ||
 e:|| ----------------|---------------- ||
 B:|| ----------------|---------------- ||
 G:||.3-3-3-3-3-3-3-3-|5-5-5-5-5-5-5-5-.||
 D:||.----------------|----------------.||
 A:|| ----------------|---------------- ||
 E:|| ----------------|---------------- ||

|___________________ __________________|
\/
3x (Wir lassen Hamburg hinter uns (3X))
Chorus:
Wir lassen [Cadd9]Hamburg hinter [G/F#]uns
Machen das [Cadd9]Leben wild und [G/F#]bunt
Auf nach Lo[Cadd9]s Angeles
[G/F#]Wir brauchen keinen [D/F#]Grund
Wir lassen [Cadd9]Hamburg hinter [G/F#]uns
Machen das [Cadd9]Leben wild und [G/F#]bunt
Auf nach Lo[Cadd9]s Angeles
[G/F#]Jetzt und ohne [D/F#]Grund

Important: The song above is NOT stored on the Chordie server. The original song is hosted at www.guitaretab.com. Chordie works as a search engine and provides on-the-fly formatting. Chordie does not index songs against artists'/composers' will. To remove this song please click here.

Text color:
Chord color:
Chord grids: 
Font size:    
Page size: 

C#5 C5 Cadd9 D#5 D/F# F5 G#5 G/F# G5
Rate #1 of 2 versions

Login - add to songbook

SHARE PAGE  



You need to log in to post comments