Guitar Tabs, Chords and Lyrics
Server problems seems to be fixed. Chordie has been experiencing problems with songs disappearing. These issues now seems to be fixed, but still verifying the fix. If you find anything strange, please email admin@chordie.com.


That Ain't My Truck  Rhett Akins

That Ain't My Truck
Rhett Akins
CD: A Thousand Memories
Track 5
Tabbed by Neil Crane
chords
[G] [C] [D] [Em] [D/F#]  
 
 -3-0-2--0---2-|
 -3-3-3--3---3-|
 -0-0-2--0---2-|
 -0-2-0--2---0-|
 -2-3----2-----|
 -3------0---2-|

main riff
[G] [C] [D]  
 
 --------------------------------------------------| (this is just the basic riff)
 -----3-----------3-----3---3-3-3-3-3--------------| (the last part is not played always)
 -----0-----------0-0-0-2---2-2-0-2-2---2-4-2-0----| (listen to song for the variations)
 -----------------------0-0-----0-----0---------4--|
 ---------0-2-3-3---3-3----------------------------|
 -3-3---3------------------------------------------|

*******************************************
Intro
G C D G C D (with main riff)
She's been [C]goin' out with him
She's been [G]goin' out with me
Said she'd [C]let us know [Em]by tonight
[D]Which one it would [C]be[D]
So I [C]waited by the phone
But she [D]never called me up[Em]
Had to [D/F#]know what was [C]goin' on
So, I drove by her [D]house and sure e[C]nough
That ain't my [G]truck in her drive
Man this [C]ain't my day tonight
[D]Looks like she's in [G]love and I'm out of [C]luck[D]
That ain't my [G]shadow on her wall
No this [Em]don't look good at [C]all
That's my girl my whole [D]world
G* C D *with bass walk up like intro
But that ain't my truck
I pulled [C]over by the curb
I've been [G]sittin' here all night
Wonderin' [C]what it was I [Em]did so wrong
[D]That he did so [C]right[D]
I've thought of [C]breakin' down her door
But there's [D]nothin' left to [Em]say
That [D/F#]chevy [C]4x4 says it all [D]sittin' in my [C]place
That ain't my [G]truck in her drive
Man this [C]ain't my day tonight
[D]Looks like she's in [G]love and I'm out of [C]luck[D]
That ain't my [G]shadow on her wall
No this [Em]don't look good at [C]all
That's my girl my whole [D]world
G* C D C D *solo begins on G
But that ain't my truck
Solo
 
 ----------------------------------------------------------8---------15-15----14b15r14------|
 -12b13r12-10\8------------------------------------------8---8-15b17-17-17r15----------15---|
 ---------------7------------------------5---7b9r7-5-7/9---------------------------------14-|
 ------------------9b10r9-7\5--------5---5--------------------------------------------------|
 -----------------------------5--5/7---7---7------------------------------------------------|
 -------------------------------------------------------------------------------------------|
 ------------------------------------------------|
 ----------------------------------------7b8r7-5-|
 -12-12----12\-------7b9r7-5-----5---------------|
 -------14---------5-------------5-----7---------|
 --------------5/7-----------5/7---5/7-----------|
 ------------------------------------------------|

That ain't my [G]shadow on her wall
No this [Em]don't look good at [C]all
That's my girl my whole [D]world
G* C D *with bass walk up like intro
But that ain't my truck
G C D (repeat with variation of main riff)
That's my [G]girl, my whole [C]world
But that ain't my [D]truck
That's my [G]girl, my whole [C]world
But that ain't my [D]truck
That's my [G]girl, [C]my whole [D]world
That's my [G]girl, my whole [C]world
But that ain't my [D]truck
That's my [G]girl, my whole [C]world
But that ain't my [D]truck
G C D (repeat until music fades)

Important: The song above is NOT stored on the Chordie server. The original song is hosted at www.guitaretab.com. Chordie works as a search engine and provides on-the-fly formatting. Chordie does not index songs against artists'/composers' will. To remove this song please click here.

Text color:
Chord color:
Chord grids: 
Font size:    
Page size: 

C D D/F# Em G
Rate #1 of 2 versions

Login - add to songbook

SHARE PAGE  




You need to log in to post comments