Guitar Tabs, Chords and Lyrics
Major upgrade!! After one year development the new version of Chordie is now online! Please give feedback.


Para que me quieras como quiero  Ricardo Arjona

Riff1
 
 E----0------------0----------|
 B--0------0-----0-----0------|
 G-2-2-2--2-2---2-2-2-2-2-----| x2
 D-------2--------------------|
 A-------------------0--------|

[Am]Podría dib[G]ujar a cien años[F] luz
la mueca que [G]pintas cuando [Am]llego,
Podría sob[G]ornar, clavarme una[F] cruz,
con tal de inspi[G]rarte un hasta [Am]luego,
Podría cam[G]inar en el[F] fuego,
F Riff1
para que me quieras como quiero.
[Am]Podría transgre[G]dir las fuerzas de [F]Dios,
podría no [G]ser yo si se pr[Am]ecisa,
podría contrad[G]ecir lo que diga mi v[F]oz,
Podría ser el [G]gato en tu co[Am]rnisa,
Podría cam[G]inar en el [F]fuego,
[F] para que me quieras como quiero.
[Am]Pero soy el c[G]ero en tu izqu[F]ierda, tu co[G]artada,
[Am]tu fusible si[G]empre en res[F]erva, no t[G]engo nada,
[Am]quiero ser el [G]truco en tus t[F]rampas
qui[Dm7]tarme el miedo, ju[F]gar tu juego, [Dm]hacer lo que no [E]puedo[E7]
para que me quieras como quiero.
Riff2
 
 E-12-10---------------------------|
 B-------13-12-10------------------|
 G----------------12-10------------|
 D----------------------14-12-10-9-|
 A---------------------------------|

Riff1
 
 E----0------------0----------|
 B--0------0-----0-----0------|
 G-2-2-2--2-2---2-2-2-2-2-----| x2
 D-------2--------------------|
 A-------------------0--------|

[Am] [G7] [F] [G]  
[Am]Podría sopo[G]rtar la calam[F]idad,
de ser el jug[G]uete de tu ju[Am]ego,
podría claudi[G]car, perder mi libe[F]rtad,
para que me q[G]uieras como es[Am]pero.
Podría en[G] el fuego,[F]
[F] para que me quieras como quiero.
[Am]Pero soy el c[G]ero en tu izqu[F]ierda, tu co[G]artada,
[Am]tu fusible si[G]empre en res[F]erva, no t[G]engo nada,
[Am]quiero ser el [G]truco en tus t[F]rampas
qui[Dm7]tarme el miedo, ju[F]gar tu juego, [Dm]hacer lo que no [E]puedo[E7]
para que me quieras como quiero.
Riff2
 
 E-12-10---------------------------|
 B-------13-12-10------------------|
 G----------------12-10------------|
 D----------------------14-12-10-9-|
 A---------------------------------|

Riff 3
 
 G--9-7-------------------------|
 D-------10-9-7-----------------|
 A----------------10-8-7-5------|

[Am]Te quiero como qu[G]ieres, me quieres como[F] puedes,
G Am x3
no quiero seguir queriendo así.
[Am]Te quiero como qu[G]ieres, me quieres como[F] puedes,
no quiero seg[G]uir queriendo a[E]sí.
para que me quieras como quiero[Am].
[Am]Pero soy el c[G]ero en tu izqu[F]ierda, tu co[G]artada,
[Am]tu fusible si[G]empre en res[F]erva, no t[G]engo nada,
[Am]quiero ser el [G]truco en tus t[F]rampas
qui[Dm7]tarme el miedo, ju[F]gar tu juego, [Dm]hacer lo que no [E]puedo[E7]
para que me quieras como quiero.
Riff2
 
 E-12-10---------------------------|
 B-------13-12-10------------------|
 G----------------12-10------------|
 D----------------------14-12-10-9-|
 A---------------------------------|

Riff 3
 
 G--9-7-------------------------|
 D-------10-9-7-----------------|
 A----------------10-8-7-5------|

[Am]Te quiero como qu[G]ieres, me quieres como[F] puedes,
G Am x11
no quiero seguir queriendo así.

Important: The song above is NOT stored on the Chordie server. The original song is hosted at www.guitaretab.com. Chordie works as a search engine and provides on-the-fly formatting. Chordie does not index songs against artists'/composers' will. To remove this song please click here.

Text color:
Chord color:
Chord grids: 
Font size:    
Page size: 

Am Dm Dm7 E E7 F G G7
Rate #1 of 3 versions

Login - add to songbook

SHARE PAGE  



You need to log in to post comments