Guitar Tabs, Chords and Lyrics
Server problems seems to be fixed. Chordie has been experiencing problems with songs disappearing. These issues now seems to be fixed, but still verifying the fix. If you find anything strange, please email admin@chordie.com.


Sweet Brother Malcolm  Richard Ashcroft

Have searched for ages for a correct tab on this song without much luck, so this is my
be wrong, sounds ok though).
The chords used are G,Em,Esus and D.
Intro Part 1>
 
 e|-----------------------------------|
 B|------3-------3-------3-------3----| < Play this three times
 G|----0---0---2---2---2---2---2---2--|
 D|--2-------0-------0-------0--------|
 A|-----------------------------------|
 E|-----------------------------------|

Intro Part 2>
 
 e|---------------------------------------|
 B|--------3-3-------3-------3-------3----|
 G|------0-----0---2---2---2---2---2---2--| < Play this once
 D|--2-2---------0-------0-------0--------|
 A|---------------------------------------|
 E|---------------------------------------|

Intro Part 3>
 
 e|-------------------------------------|
 B|------3-3-------3-------3-------3----|
 G|----0-----0---2---2---2---2---2---2--|
 D|--2---------0-------0-------0--------|
 A|-------------------------------------|
 E|-------------------------------------|

The first verse lyrics start with part 3 which is just repeated through the verse.
Sweet brother malcolm,
he's under house arrest,
Its the talk of the town,
who'd of thought it of him?
Sweet cousin mary,
No blood in her veins,
She had so much,
Now nothing remains. (Start to strum a D chord)
When it a[G]ll comes c[Em]rashing [Esus]down,
And the p[G]ress move [Em]in to to[Esus]wn,
[G] (Strum las[Em]t Esus[Esus] once)[G] [Em]
Bring all floral words wrapped in sellophane.
Intro 1(once), Intro 2(once) then play Intro 3 throughout verse 2
Sweet little tony,
Where'd it all go wrong ?
He hit the wall,
Singing his favourite song (start to strum a D chord)
When it a[G]ll comes c[Em]rashing [Esus]down,
And the p[G]ress move [Em]in to t[Esus]own,
[G]Bring all [Em]floral [Esus]words [G]wrapped in [Em]sellop[Esus]hane,
[G]Watch them m[Em]ove out as fast [Esus]as they came,
[G]Leave the broken [Em]hearted with their [Esus]pain.
Intro 1(once), Intro 2(once) then Intro 3 throughout verse 3
Sweet brother malcolm,
he's under house arrest,
Its the talk of the town,
who'd of thought it of him?
Sweet angel mary,
no blood in her veins,
Wheres this life ?
madness remains
Wheres theres life
madness will reign
Madness will reign
Hope this is Ok, let us know.

Important: The song above is NOT stored on the Chordie server. The original song is hosted at www.guitaretab.com. Chordie works as a search engine and provides on-the-fly formatting. Chordie does not index songs against artists'/composers' will. To remove this song please click here.

Text color:
Chord color:
Chord grids: 
Font size:    
Page size: 

Em Esus G
Rate #3 of 6 versions

Login - add to songbook

SHARE PAGE  



You need to log in to post comments