Guitar Tabs, Chords and Lyrics
Server problems seems to be fixed. Chordie has been experiencing problems with songs disappearing. These issues now seems to be fixed, but still verifying the fix. If you find anything strange, please email admin@chordie.com.


We Belong Together  Ritchie Valens

Title: We Belong Together
Artist: Ritchie Valens
Tabbed by: Jose Perales
This song was requested by many youtube members, it is a really easy song played in
tuning. Please keep in mind that this is my first attempt in posting a tab on the internet.
Main guitar: Electric. Rythm guitar: Acoustic.
Intro:(clean elecric) Verse:
[F] [Dm] [Gm] [C]You're [F]mine[Dm] [Gm]
(2)mine
 
 e--------------------------------------------------I------------------------|
 B-6---6-6------------------------------------------I------------------------|
 G-5h7-7-5-2-0(2)---0-2----------0--0-0h2p0---------I------0-2----------0--0-|
 D-------------3--3-----0--0-2-3----------------0-2-I-3--3-----0--0-2-3------|
 A-----------------------------------------3--3-----I------------------------|
 E--------------------------------------------------I------------------------|

and we be[C]long t[F]ogether [Dm] [Gm] Yes we b[C]elong tog[F]ether
You're lips belong to me Yes they belong to only me
 
 e---------------------------------------------------------------------------|
 B---------------------------------------------------------------------------|
 G-0h2p0--------------------0-2-----------0--0-0h2p0---------------------0-2-|
 D------------0-2-3-------3-----0---0-2-3-------------------0-2-3------3-----|
 A-------3--3-----------------------------------------3---3------------------|
 E---------------------------------------------------------------------------|

[Dm] [Gm] For et[C]ernity[F] [Dm] [Gm] [C] You're-
to coda* For eternity*(to bridge) (go to 2nd verse)
 
 e---------------------------------------------------------------------------|
 B---------------------------------------------------------------------------|
 G----------0-0-0h2p0-------------------0-2----------0---0--0h2p0------------|
 D-0--0-2-3*----------------0-2-3*---3------0--0-2-3--------------------0-2--|
 A---------------------3--3---------------------------------------3--3-------|
 E---------------------------------------------------------------------------|

Bridge:
[Dm] [F7] You're ---
 
 e---------------------------1-1-1-1-----------------------------------------|
 B---------------------------1-1-1-1-----------------------------------------|
 G---0-2-3---3-2-0---------2-2-2-2-2-----------------------------------------|
 D-3----------------3--33----1-1-1-1-----------------------------------------|
 A---------------------------------------------------------------------------|
 E---------------------------------------------------------------------------|

Bb Bbm F (with fill 1) Bb
my..... my..my baby and you'll... always... be.. I swear by
... every[Bbm]thing I own... You'll [G7]always... always be [C]mine
Fill 1
 
 e-----------------------------------------------I e------------------|
 B-\6-66-----------------------------------------I B------------------|
 G-\5-55-7-6-5-----------------------------------I G\5-5-5--555-333---|
 D-------------7-6-5--3-0------------------------I D\5----------------|
 A-----------------------------------------------I A\3----------------|
 E-----------------------------------------------I E------------------|

Slower
You're- For.... eternity etern..
(to 1st verse) *coda
[Gm] [C] [F] [Bb]  
 
 e---------I-I----3------------------0----1----------(1)---------------------|
 B---------I-I----3------------------1----1-----------3------3---------------|
 G-2-2-0---I-I----3------------------0----2-----2-----3----3---3-------------|
 D---------I-I----5------------------2----3----3--3---3--3-------3-----------|
 A---------I-I----5------------------3----3---3----3--1----------------------|
 E---------I-I----3------------------0----1----------------------------------|

eternity
[Fmaj7]  
 
 e------0-------------------------------------------------------------------|
 B------1-------------------------------------------------------------------|
 G------2-------------------------------------------------------------------|
 D------3-------------------------------------------------------------------|
 A------3-------------------------------------------------------------------|
 E--------------------------------------------------------------------------|

[Bb] [Bbm] [Dm] [F7] [Gm] [G7]  
[1]3 [1]2 [1]3 [1]1 [3]3 [1]0
3 3 2 2 3 0
3 3 0 1 5 0
1 1 0 0 5 2
0 0 0 0 3 3
Hope you guys like my version, its mostly based on Los Lobos' version for the La Bamba
Enjoy!!!

Important: The song above is NOT stored on the Chordie server. The original song is hosted at www.guitaretab.com. Chordie works as a search engine and provides on-the-fly formatting. Chordie does not index songs against artists'/composers' will. To remove this song please click here.

Text color:
Chord color:
Chord grids: 
Font size:    
Page size: 

Bb Bbm C Dm F F7 Fmaj7 G7 Gm
Rate #1 of 6 versions

Login - add to songbook

SHARE PAGE  



You need to log in to post comments