Guitar Tabs, Chords and Lyrics
Server problems seems to be fixed. Chordie has been experiencing problems with songs disappearing. These issues now seems to be fixed, but still verifying the fix. If you find anything strange, please email admin@chordie.com.


Talk to Your Daughter  Robben Ford

Author/Artist: Robben Ford
Title: Talk to your Daughter
Album: Talk to your Daughter
Transcribed by: Geoff Lea
Email: Geosouthuk@aol.com
Great Solo , Essentially in G minor but many other tit bits can be gleended from this masterful display.
Notice the very close relationship of melody note and chord tone thoughtout the solo.
The Progression is basically a Dominant 12 Bar in G, one or 2 little turnarounds, nothing scarey.
Try to spot where Robben uses arpeggios to outline certain changes, and notice how he plays effortlessly through the changes.
Intro lick
 
 -------3--------3--------3-|-------3-------3-------3--------3-|---------------
 -----3--------3--------3---|-----3-------3-------3--------3---|---------------
 -5b7------5b7------5b7-----|-5b7-----5b7-----5b7------5b7-----|---------------
 ---------------------------|----------------------------------|---------------
 ---------------------------|----------------------------------|---------------
 ---------------------------|----------------------------------|---------------

[G7]  
 
 ---------|--------------------------|----10-12----------------------|---------
 -6/8-----|-13b15---r13-11-----11-13-|-12-------10--10---------------|---------
 ---------|----------------12--------|-----------------12-10---------|---------
 ---------|--------------------------|-----------------------10-8----|-898-----
 ---------|--------------------------|----------------------------10-|---------
 ---------|--------------------------|-------------------------------|---------

[C7] [G7] 
 
 -------------|----------------------------|-----------------|-------------|---
 ---8-11-8-10-|--8-------------------------|-----------------|------35-3-5-|---
 -9-----------|--11b----10-7---------------|--5b6-3-5-3------|---4---------|---
 -------------|---------------11-10-8-----8|-------------5-2-|-5-----------|---
 -------------|-----------------------10---|-----------------|-------------|---
 -------------|----------------------------|-----------------|-------------|---

[D7] [C7] [G7] [/B] [C] 
 
 --------------------------|-8--10-6--------|---------3-----|--------------3---
 ----------10----11----11b-|----------8-8-6-|--6-b-8----3-6-|----3-----3-5-----
 -------12----12----12-----|----------------|---------------|--5---3-4---------
 ----12--------------------|----------------|---------------|------------------
 -10-----------------------|----------------|---------------|------------------
 --------------------------|----------------|---------------|------------------

[C#dim] [D7] [G7]  
 
 ---6b-|----6-7-8-6-7-8-6-7-8-|--8b10-v-v-v-|-vvvvvvvv|-r-6-8-6-|-------12-10--
 -8----|--8-------------------|-------------|---------|---------|--------------
 ------|----------------------|-------------|---------|---------|--------------
 ------|----------------------|-------------|---------|---------|--------------
 ------|----------------------|-------------|---------|---------|--------------
 ------|----------------------|-------------|---------|---------|--------------

[C7] [G7] 
 
 ------------|---------------|-----------15-10-13----10-|-----10-12----------|-
 -11-10------|----10----10-b-|--11-13b15----------13----|-11b-------10-10----|-
 -------12-9-|-12----12------|--------------------------|-----------------12-|-
 ------------|---------------|--------------------------|--------------------|-
 ------------|---------------|--------------------------|--------------------|-
 ------------|---------------|--------------------------|--------------------|-

[D7] [C7] [G7] [D7] [C7] 
 
 -13-13-13-13-13-------13-|-------------|-----------|-------|-------|--20b22---
 ----------------13b15----|-------------|-----------|-------|-------|----------
 -------------------------|-------------|-----------|-------|-------|----------
 -------------------------|-------------|-----------|-------|-------|----------
 -------------------------|-------------|-----------|-------|-------|----------
 -------------------------|-------------|-----------|-------|-------|----------

[G7]  
 
 -18-b20-18|--15-------------------|------15-15-15|--17-15-17----17-17-15-|----
 ----------|-----18-15-------------|---17---------|-----------------------|----
 ----------|-----------18-17-15----|--------------|-----------------------|----
 ----------|--------------------17-|--------------|-----------------------|----
 ----------|-----------------------|--------------|-----------------------|----
 ----------|-----------------------|--------------|-----------------------|----

[C7] [E9] [Eb9] [D9] [C7] [G7] 
 
 -15\----/--20b22|----18-20--18------------|---14-17--13-17-|------18-15-|-----
 ----------------|--------------20----20-v-|----------------|-17-v-------|-----
 ----------------|-----------------19------|----------------|------------|-----
 ----------------|-------------------------|----------------|------------|-----
 ----------------|-------------------------|----------------|------------|-----
 ----------------|-------------------------|----------------|------------|-----


Important: The song above is NOT stored on the Chordie server. The original song is hosted at www.guitaretab.com. Chordie works as a search engine and provides on-the-fly formatting. Chordie does not index songs against artists'/composers' will. To remove this song please click here.

Text color:
Chord color:
Chord grids: 
Font size:    
Page size: 

C C#dim C7 D7 D9 E9 Eb9 G7
Rate #1 of 1 versions

Login - add to songbook

SHARE PAGE  



You need to log in to post comments