Guitar Tabs, Chords and Lyrics
Server problems seems to be fixed. Chordie has been experiencing problems with songs disappearing. These issues now seems to be fixed, but still verifying the fix. If you find anything strange, please email admin@chordie.com.


Junebug  Robert Francis

hey
I used half a year to play this song well can. but it was worth it. this is not a
new tab on ultimate guitar, I actually only added the intro. have fun playing it,
and who finds fault, it must retain. forgive me my crappy english. oh, and here is
the link where u can see that this chords are right!
http://www.youtube.com/watch?v=-9JtAt2ojKE&feature=related
Chords needed:
E = 022100
C#m = 446654
Bsus2 = 224422
Asus2 = 002200
[E] [E] [E] [E] [E] [E]  
 
 |---------------------|---------------------------|---------------------|
 |---------------------|---------------------------|---------------------|
 |--------1----------1-|---------1------------1----|--------1---------1--|
 |----2----------2-----|-----2-----4------2-----4--|----2---------2------|
 |--2---2------2---2---|---2---2--------2---2------|--2---2-----2---2----|
 |--0----------0-------|----------------0----------|------------0--------|

[E] [E]  
 
 |-----------------|-----------------------------------------------------|
 |-----------------|--0-0-0-0--------------------------------------------|
 |--------1--------|---1-1-1---------------------------------------------|
 |----2-----4------|-----------------------------------------------------|
 |--2---2-------2--|-----------------------------------------------------|
 |--0--------------|-----------------------------------------------------|

[E]Junebug, I r[C#m]emember everything.
[Bsus2]The blue carpeted floors, the tall wooden doors, I he[Asus2]ld you in my arms.
[E]Junebug, I'd burn down a [C#m]picture of a house,
[Bsus2]say it was ours, w[Asus2]hen we didn't need it anymore.
[Asus2]And that was when I loved you[Bsus2] best.
[Asus2]We were kids then. We shoul[Bsus2]dn't think about the rest.
[E]woo-hoo-hoo
E Asus2 C#m Bsus2 E (play these chords quickly)
 
 ah-hooo-hooo-hooo-hoo-hoo-hoo-hooo (keep your voice up)

[E] [Asus2] [C#m] [Bsus2] [E]  
 
 a-hoo-hoo-hoo-ho-hoo-ho-hoo

[Asus2]hoo-ho-hoo-ho-ho-[Bsus2]hooo
[E]You'd put the moon in a basket on your bike front by the coast.
[C#m]The way your face lit up in pale grief you were a ghost.
[Bsus2]You liked to play with darkness, all the universe could give.
[Asus2]I was the home you once tried to escape, the dark in which you lived.
[E]And soon they'd find you laying there on several different homes.
They'd [C#m]find you laying on their porches, did you need to use the phone?
[Bsus2]And lure you into their rooms, that[Asus2] was the last I heard of June.
[Asus2]That was love I could n[Bsus2]ot allow.
[Asus2]You were beautiful then, you're just a[Bsus2] coke jaw now.
[E]woo-hoo-hoo
[E] [Asus2] [C#m] [Bsus2] [E]  
 
 ah-hooo-hooo-hooo-hoo-hoo-hoo-hooo (voice up)

[E] [Asus2] [C#m] [Bsus2] [E]  
 
 a-hoo-hoo-hoo-ho-hoo-ho-hoo

[Asus2]hoo-ho-hoo-ho-ho-[Bsus2]hooo
[E] [Asus2] [C#m] [Bsus2] 
[E]I remember every[Asus2]thing. [C#m] [Bsus2]
[Asus2] That was love I could not [Bsus2]keep.
[Asus2]You were beautiful then. [Bsus2]I?m still in too deep.
[E]woo-hoo-hoo
[E] [Asus2] [C#m] [Bsus2] [E]  
 
 ah-hooo-hooo-hooo-hoo-hoo-hoo-hooo (voice up)

[E] [Asus2] [C#m] [Bsus2] [E]  
 
 a-hoo-hoo-hoo-ho-hoo-ho-hoo

[Asus2]hoo-ho-hoo-ho-ho-[Bsus2]hooo

Important: The song above is NOT stored on the Chordie server. The original song is hosted at www.guitaretab.com. Chordie works as a search engine and provides on-the-fly formatting. Chordie does not index songs against artists'/composers' will. To remove this song please click here.

Text color:
Chord color:
Chord grids: 
Font size:    
Page size: 

Asus2 Bsus2 C#m E
Rate #1 of 6 versions

Jango Player

Login - add to songbook

SHARE PAGE  



You need to log in to post comments