Guitar Tabs, Chords and Lyrics
Server problems seems to be fixed. Chordie has been experiencing problems with songs disappearing. These issues now seems to be fixed, but still verifying the fix. If you find anything strange, please email admin@chordie.com.


Alibi  Robert Francis

This is my first contribution, a great song, thank you Emmanuelle !
ALIBI - Robert Francis
Tabbed by: Matthieu
Tuning: A
Many chords are played open in Intro (let last cords ring)
Listen to the song to get the pattern, not too hard.
Intro :
A(open)
 
 e|-------0-----------------0-------0-----|
 B|---------------------0-----------------|
 G|--------------6---------------------6--| x2
 D|----------7------7---------------------|
 A|---------------------------------------|
 E|----5-----5------------------5---------|

[A] [C#m/G#] [Bm/F#] 
 
 e|--------- 0---------0------------0----------0------0-----0----------------------------|
 B|--------- 0---------5------------3----------3------2-----3----------------------------|
 G|--------- 6---------6------------4----------4------4-----4----------------------------|
 D|--------- 7---------6------------4----------4------4-----4----------------------------|
 A|--------- 7---------------------------------------------------------------------------|
 E|--0--5----------4----------2------------2---------------------------------------------|

[C#m/G#] [Bm/F#] [A] 
 
 e|---------------------4------------2-----------------------------------------|
 B|---------------------5------------3-----------------------------------------|
 G|---------------------6------------4----------------------------------2------|
 D|---------------------6------------4---------2----2h4-- 2---2h4--------------|
 A|-----2-/-4----------------------------------0------------0------------------|
 E|--------------4------------2----------------0------------0------------------|

************************************
| / slide up
| h hammer-on
************************************
Part 1
[A]I won't forget the reasons I went so fa[C#m]r to love you
[A]A man is most important When he's unm[C#m]oved by separation
[A]And tries to match the tempo In which death [C#m]succeeds creation
[A]Burning there to keep you All I needed [C#m]was some patience
Part 2
[D]When you turned into a woman[C#m]
When I loved[A] you as a child[D]
[D]I wanted to protect yo[C#m]u
From the things[A] that made you smile[D] [E]
Part 3
My little alibi[D] [E]
[E]Time couldn't change us
But we tried[D] [E]
My little alibi[D] [E]
I wanna see you cry
Bridge : A C#m A C#m Bm/F# G Bm/F# E
Repeat this pattern for the whole song and enjoy !

Important: The song above is NOT stored on the Chordie server. The original song is hosted at www.guitaretab.com. Chordie works as a search engine and provides on-the-fly formatting. Chordie does not index songs against artists'/composers' will. To remove this song please click here.

Text color:
Chord color:
Chord grids: 
Font size:    
Page size: 

A Bm/F# C#m C#m/G# D E
Rate #1 of 2 versions

Jango Player

Login - add to songbook

SHARE PAGE  



You need to log in to post comments