Guitar Tabs, Chords and Lyrics
Major upgrade!! After one year development the new version of Chordie is now online! Please give feedback.


You're Gonna Get What's Coming  Robert Palmer

YOU'RE GONNA GET WHAT'S COMING by ROBERT PALMER, from the album 'DOUBLE FUN', 1978
(also covered later by Bonnie Raitt)
Tabbed by Builderboy@comcast.net beat = 127 (Andante)
any assistance on the fill at the 'D' is appreciated
[G] [(7)]  
 
 |--3------------------------------------|---------------------------------------|
 |--3------------------------------------|---------------------------------------|
 |--4------------------------------------|---------------------------------------|
 |--5------------------------------------|---------------------------------------|
 |--5------------------------------------|---------------------------------------|
 |--3------------------------------------|---------------------------------------|

(verse)
[G] [G7] [Csus4] [(C6)]  
 
 |--3-----------------------(3)-----(3)--|---3------------------3----------------|
 |--3---------------------------(6)------|---6------------------3----------------|
 |--4------------------------------------|---5------------------5----------------|
 |--5------------------------------------|---5------------------5----------------|
 |--5-----------------------5---3---5----|---3------------------3----------------|
 |--3------------------------------------|---------------------------------------|

(1) You came upon me like a land- slide
(2) I hope that you're half intrepid as you make out
[A] [F] [G]  
 
 |---0------------------1----------------|--3------------------------------------|
 |---2------------------1----------------|--3------------------------------------|
 |---2------------------2----------------|--4------------------------------------|
 |---2------------------3----------------|--5------------------------------------|
 |---0------------------3----------------|--5------------------------------------|
 |----------------------1----------------|--3------------------------------------|

Once in a while, I get taken like that, and I like it
More often than not, I bet you never got what you asked for
[G] [G7] [Csus4] [(C6)]  
 
 |--3-----------------------(3)-----(3)--|---3------------------3----------------|
 |--3---------------------------(6)------|---6------------------3----------------|
 |--4------------------------------------|---5------------------5----------------|
 |--5------------------------------------|---5------------------5----------------|
 |--5-----------------------5---3---5----|---3------------------3----------------|
 |--3------------------------------------|---------------------------------------|

I got a Thunderbird parked right out-side
Keep on pouring till you hear me shout
[A] [F] [G]  
 
 |---0------------------1----------------|--3------------------------------------|
 |---2------------------1----------------|--3------------------------------------|
 |---2------------------2----------------|--4------------------------------------|
 |---2------------------3----------------|--5------------------------------------|
 |---0------------------3----------------|--5------------------------------------|
 |----------------------1----------------|--3------------------------------------|

Gimme a minute to finish this thing & we'll light it whoa-o-oh
And turn up the sound if you want me to drive any faster
[Em] [A]  
 
 |---0-----------------------------------|--0---------3-0-2-0-----------3-0-2-0--|
 |---0-----------------------------------|--2------------------------------------|
 |---0-----------------------------------|--2------------------------------------|
 |---2-----------------------------------|--2------------------------------------|
 |---2-----------------------------------|--0------------------------------------|
 |---0-----------------------------------|---------------------------------------|

In all this heat, it's a job keeping cool Oh, yeah
Caution went out when you walked in the room
[Em] [D]  
 
 |---0-----------------------------------|---------------------------------------|
 |---0-----------------------------------|----------------10---------------------|
 |---0-----------------------------------|----5----7----9-11---------------------|
 |---2-----------------------------------|-5/7?-7/9?9/10--12-12\10---10\9---9\7--|
 |---2-----------------------------------|------------------------12-----12----10|
 |---0-----------------------------------|---------------------------------------|

And I could fry an egg on you
If it never came back, it would be too soon
[G(7)] [/] [/] [/] [/] [/] [Csus4] [Csus2]  
 
 |---3-----------------------3---3-------|---3--------------------3--------------|
 |---3-----------------------3---3-------|---6--------------------3--------------|
 |---4-----------------------4---4-------|---5--------------------5--------------|
 |---5-----------------------3---5-------|---5--------------------5--------------|
 |---5-----------------------5---5-------|---3--------------------3--------------|
 |---3-----------------------3---3-------|---------------------------------------|

You came upon me like a land- slide
[A] [/] [/] [/] [/] [F] [/] [/] [G] [(7)]  
 
 |---0------------------1----------------|--3------------------------------------|
 |---2------------------1----------------|--3------------------------------------|
 |---2------------------2----------------|--4------------------------------------|
 |---2------------------3----------------|--5------------------------------------|
 |---0------------------3----------------|--5------------------------------------|
 |----------------------1----------------|--3------------------------------------|

Once in a while, I get taken like that, and I like it
[G] [A#]  
 
 |---3-----------------------------------|---6-----------------------------------|
 |---3-----------------------------------|---6-----------------------------------|
 |---4-----------------------------------|---7-----------------------------------|
 |---5-----------------------------------|---8-----------------------------------|
 |---5-----------------------------------|---8-----------------------------------|
 |---3-----------------------------------|---6-----------------------------------|

You're gonna get what's coming You've been asking for it 2 days running
[C] [G(7)]  
 
 |---8-----------------------------------|---3-----------------------------------|
 |---8-----------------------------------|---3-----------------------------------|
 |---9-----------------------------------|---4-----------------------------------|
 |---10----------------------------------|---5-----------------------------------|
 |---10----------------------------------|---5-----------------------------------|
 |---8-----------------------------------|---3-----------------------------------|

You're gonna get whats coming You're gonna get what's coming to you

Important: The song above is NOT stored on the Chordie server. The original song is hosted at www.guitaretab.com. Chordie works as a search engine and provides on-the-fly formatting. Chordie does not index songs against artists'/composers' will. To remove this song please click here.

Text color:
Chord color:
Chord grids: 
Font size:    
Page size: 

A A# C Csus2 Csus4 D Em F G G(7) G7
Rate #1 of 2 versions

Login - add to songbook

SHARE PAGE  



You need to log in to post comments