Guitar Tabs, Chords and Lyrics
Major upgrade!! After one year development the new version of Chordie is now online! Please give feedback.


Lisa  Roger McGuinn

Main Riff
 
 e||--------5--7--9--7--------|--------4--5--7--5--------||
 B||-----5--------------5-----|-----5--------------------||
 G||--6--------------------7--|--6-----------------7--4--||
 D||--------------------------|--------------------------||
 A||--------------------------|--------------------------||
 E||--------------------------|--------------------------||

* Palm mute and play double time during the first verse
Verse Chords (voicing shown as it is played on 2nd verse)
[A] [Cm]  
 
 e||--------------------------|--------------------------||
 B||--5--5----5-----5--5----5-|--5--5----5-----5--5----5-||
 G||--6--6----6-----6--6----6-|--6--6----6-----6--6----6-||
 D||--7--7----7-----7--7----7-|--6--6----6-----6--6----6-||
 A||--------------------------|--------------------------||
 E||--------------------------|--------------------------||

Double Stop VerseRiff
 
 e||--9----7---------5----|--7----5---------4----||
 B||----------------------|----------------------||
 G||--9----7---------6----|--7----6---------4----||
 D||----------------------|----------------------||
 A||----------------------|----------------------||
 E||----------------------|----------------------||

Chorus Chords
[D] [A] [E]  
 
 e||-------------------|--5----------------|--0----------------||
 B||--7----------------|--5----------------|--0----------------||
 G||--7----------------|--6----------------|--1----------------||
 D||--7----------------|--7----------------|--2----------------||
 A||--5----------------|--7----------------|--2----------------||
 E||-------------------|--5----------------|--0----------------||

Breakdown
 
 E||--------------------------------|----------------------------------------|
 B||--10-------12--10--12s--14----9-|--7s--9----7s--9----7s--9----10----5----|
 G||--------------------------------|----------------------------------------|
 D||--11-------12--11--12s--14----9-|--7s--9----7s--9----7s--9----11----6----|
 A||--------------------------------|----------------------------------------|
 E||--------------------------------|----------------------------------------|
 --------------------------|--------------------------|
 --------------------------|--------------------------|
 -----7-----7h--9--7-------|-----6-----6h--7--6-------|
 --9-----9------------9----|--7-----7------------7----|
 --------------------------|--------------------------|
 --------------------------|--------------------------|
 --------------------------|----------------------------||
 --------------------------|-----------12----10----9----||
 -----4-----6h--7--6-------|-----4----------------------||
 --6-----6------------6----|--6-----6--12----11----9----||
 --------------------------|----------------------------||
 --------------------------|----------------------------||


Important: The song above is NOT stored on the Chordie server. The original song is hosted at www.guitaretab.com. Chordie works as a search engine and provides on-the-fly formatting. Chordie does not index songs against artists'/composers' will. To remove this song please click here.

Text color:
Chord color:
Chord grids: 
Font size:    
Page size: 

A Cm D E
Rate #3 of 3 versions

Jango Player

Login - add to songbook

SHARE PAGE  



You need to log in to post comments