Guitar Tabs, Chords and Lyrics
Login is temporarily disabled for some users. Do not panic. Will be back in an hour or two. DO NOT REREGISTER!!


Somebody Loves You  Roger McGuinn

 
 -------------------------------------------------------------------------------

Tabbed by: Gregor Young
Email: gregor.young@gmail.com
Tuning:standard
Notes: Pick all the way through. not perfect, but close enough for a one-man acoustic version
INTRO
[B] [Asus2] [G7] [B] [Asus2] [G7]  
 
 e|-----------------------1h0-0---1h0-1h0----|-----------------------------|
 B|--------------------------3-3-----3---3-0-|--------------------0----0---|
 G|-3----3----2-----2-----------------------0|--3----3----2---2----0----0--|
 D|--3----3----2-----2-----------------------|---3----3----2----2---0----0-|
 A|2---2-----0---0---------------------------|2----2----0---0--------------|
 E|-----------------------3------3-----------|-------------------3----3----|

CHORDS:
 
 e|--x----x----1-----0-------x------x-----x----------------------------------|
 B|--x----0----0-----2-------3------3-----3----------------------------------|
 G|--3----2----0-----3-------0------1-----0----------------------------------|
 D|--3----2----0-----0-------2------0-----1----------------------------------|
 A|--2----0----2-----x-------3------1-----x----------------------------------|
 E|--x----x----3-----x-------x------x-----x----------------------------------|

[B] [Asus2] [G7] [Dsus2] [Cadd9] [Bb7b5] [G#7] 
| / slide up
| \ slide down
| h hammer-on
| p pull-off
| ~ vibrato
| + harmonic
| x Mute note
============================================================================
[B] [Asus2] [G7]come here[B], [Asus2] [G7]
[B]before I go [Asus2]away again there's som[G7]ething I'd like you to h[B]ear,[Asus2] [G7]
[Dsus4]somebody loves you and I [Cadd9]know who it [Bb7b5]is
[Dsus4]a million dollar answer if you're[Cadd9] up for the [G#7]quiz
[Dsus4]close your eyes, [Cad99]spin around [Bb7b5]you're [Dsus2]done,
it's [G]me you're after
I am the[Bb7b5] one [Cadd9] [Bb7b5] [Cadd9] I am the [Bb7b5]one[Cadd9] [Dsus2]
(stepdown: Dsus2 Cadd9 B)
etc...

Important: The song above is NOT stored on the Chordie server. The original song is hosted at www.guitaretab.com. Chordie works as a search engine and provides on-the-fly formatting. Chordie does not index songs against artists'/composers' will. To remove this song please click here.

Text color:
Chord color:
Chord grids: 
Font size:    
Page size: 

Asus2 B Bb7b5 Cadd9 Dsus2 Dsus4 G G#7 G7
Rate #3 of 4 versions

Login - add to songbook

SHARE PAGE  



You need to log in to post comments