Guitar Tabs, Chords and Lyrics
Server problems seems to be fixed. Chordie has been experiencing problems with songs disappearing. These issues now seems to be fixed, but still verifying the fix. If you find anything strange, please email admin@chordie.com.


This I Promise You  Ronan Keating

Capo 3rd Fret
INTRO:
[G] [Gsus4add6] [G] [Gsus4add6] [G] [Gsus4add6] [G] 
Gtr I
 
 |----------------------|------------------------------|---------------------|------|
 |----0---(0)(0)h=1--0--|----0--(0)(0)h1-(1)-(1)--1----|----0---(0)(0)h=1----|----0-|
 |----0---(0)(0)--0--0--|----0--(0)(0)-0-(0)--0---0--0-|----0---(0)(0)--0--0-|----0-|
 |--0------0h=2--(2)-0--|--0-----0h=2---------2--(2)-0-|--0------0h=2--(2)-0-|--0-0-|
 |----------------------|------------------------------|---------------------|------|
 |-3--------------------|-3----------------------------|-3-------------------|-3----|

VERSE:
My [G]love, here I stand before[C] you I am yours[D] now from this moment [G]on
Take my [G]hand Only you can stop me[C] shaking
We'll share for[D]ever this I promise [G]you
cHORUS:
And when I [C]look in your eyes [D]all of my life feels b[G]efore me
And I'm not [C]running anymore cause[D] I already know I'm[G] home
With every [C]beat of my heart I[D] give you my love co[Em]mpletely
My [C]darling, [D]this I promise [G]you
VERSE 2:
My [G]love, I can feel your h[C]eartbeat, as we [D]dance now, closer than be[G]fore
Don't let [G]go, don't let go cause I can almost[C] cry now
This is for[D]ever I make this vow to [G]you
CHORUS:
And when I l[C]ook in your eyes[D] all of my life feels b[G]efore me
And I'm not [C]running anymore cause [D]I already know I'm[G] home
With every [C]beat of my heart I[D] give you my love compl[Em]etely
My [C]darling,[D] this I promise ...
OUTRO:
[C]you[D] [Em]
C |D / / / | / / |
My darling, this I promise ...
C G C G |C / / / | / G .....
you This I promise you, oh I promise you, promise you this I promise you
Finger picking pattern (from line 2 of 1st verse)
 
 |---------3-------|---------3-------|---------3-------|---------3--------|
 |-----3-------3---|-----3-------3---|-----3-------3---|-----3-------3----|
 |-------0-------0-|-------0-------0-|-------0-------0-|-------0-------0--|
 |---0-------0-----|---0-------0-----|---2-------2-----|---2-------2------|
 |-----------------|-----------------|-3---------------|-3----------------|
 |-3---------------|-3---------------|-----------------|------------------|
 |---------2-------|---------2-------|---------3-------|---------3--------|
 |-----3-------3---|-----3-------3---|-----3-------3---|-----3-------3----|
 |---2---2-------2-|---2---2-------2-|-----------0-----|-------0-------0--|
 |-0---------0-----|-0---------0-----|---0---0-------0-|---0-------0------|
 |-----------------|-----------------|-----------------|------------------|
 |-----------------|-----------------|-3---------------|-3----------------|


Important: The song above is NOT stored on the Chordie server. The original song is hosted at www.guitaretab.com. Chordie works as a search engine and provides on-the-fly formatting. Chordie does not index songs against artists'/composers' will. To remove this song please click here.

Text color:
Chord color:
Chord grids: 
Font size:    
Page size: 

C D Em G
Rate #1 of 7 versions

Login - add to songbook

SHARE PAGE  




You need to log in to post comments