Guitar Tabs, Chords and Lyrics
Server problems seems to be fixed. Chordie has been experiencing problems with songs disappearing. These issues now seems to be fixed, but still verifying the fix. If you find anything strange, please email admin@chordie.com.


When the World Was Mine  Ronan Keating

Date : 24,July,2004
Song : When The World Was Mine
Artist : Ronan Keating
Album : Ronan
I am : Mohamed Hassan ...20 years old ..Egyptian
Normally,I'm not much of a pop fan,but I ran into this song and I kinda liked it,this is just
something to get you going,
Intro :
 
 -------
 -7--7--7--7--|-7--7--7--7----|This is the picking pattern for the
 --5--5--5--5-|--5--5--5--5---|intro,it's done 4 times with variations
 ---4--4--4---|---6--6--6-----|done by the bass guitar,same picking pattern
 -------------|---------------|is used throughout the song for different
 -------------|---------------|chords.
 -0-----------|-5-------------|

Verse
[-----](in the song,open chords are used but it's up to you)
[E]It never rained, the Sun was always [A]shining
[F#m]Every traffic light Was always [E]green
Ther[G#m]e was a time when Every door was [A]open
The [F#m]universe was mine Or so it [E]seemed
 
 b--9-10-12----|
 g---------9---|

[E] [A]  
 
 Ever roll was seven or eleven b-10-9-7-5-7-

[F#m] [E]  
 
 That it would ever End never crossed my mind b-9s10-10-10-9-7----

[G#m] [A]  
 
 I was flying higher Than the Heavens a--2--7-7--

[F#m]Back when the [G#m]World was[E] mine
 
 --------------------|
 --9-7---------------|
 -----9-8-6----------|
 -----------9-7-6----|
 --------------------|
 --------------------|

Chorus
Sometimes a man [E]can't see
When he has it [F#m]all
Take a look at [A]me
Oh how he mighty [E]fall
Once I ruled the [E]earth
Once upon a[F#m] time
When I had your [A]love
[G#m]When the [F#m]world was [E]mine
 
 |--------------------------------------------------|
 |--------------------------------------------------|
 |----9---8-9-9--9b8b6------------------------------|
 |--9---9---9-9-------9-9s11-9--9-7-6-7-7-7-7-6-4-2-|
 |--------------------------------------------------|
 |--------------------------------------------------|
 --------------|
 --------------|
 --------------|
 -2-4-6-4-2-2--|
 --------------|
 --------------|

Oh the changes
I'd make if
I had the power
How could
I have so much
And be so blind
But at least for
A bright and
Shining moment
I had you, and
The world was mine
Chorus
Sometimes a man [E]can't see
When he has it [F#m]all
Take a look at [A]me
Oh how he mighty [E]fall
Once I ruled the [E]earth
Once upon a[F#m] time
When I had your [A]love
[B]When the world was[E7] mine
 
 ---------------------------------------------------|
 -------14-12-11-14-12-11---------------------------|
 -----------------------------11--------11----------|
 -11h13------------------11-13--13-11-13---13-11-11-|
 ---------------------------------------------------|
 ---------------------------------------------------|
 --------------------------------------------------------|
 ----12-11-9-7-------12-11-9-7---14-12-11-9-7------------|
 -13-----------13-13-----------13------------------------|
 --------------------------------------------------------|
 --------------------------------------------------------|
 --------------------------------------------------------|
 ---------------------------------------------------|
 --7-6-4--------------------------------------------|
 --------6-4-3--------------------------------------|
 --------------6-4-3--------------------------------|
 --------------------6-4----------------------------|
 ---------------------------------------------------|

Once I ruled the earth
Once upon a time
When I had your love
That's when
The world was mine
When I had your love
That's when
The world was mine
That's it..I didn't tab the last solos...cause I think you should improvise on your own

Important: The song above is NOT stored on the Chordie server. The original song is hosted at www.guitaretab.com. Chordie works as a search engine and provides on-the-fly formatting. Chordie does not index songs against artists'/composers' will. To remove this song please click here.

Text color:
Chord color:
Chord grids: 
Font size:    
Page size: 

A B E E7 F#m G#m
Rate #1 of 3 versions

Login - add to songbook

SHARE PAGE  



You need to log in to post comments