Guitar Tabs, Chords and Lyrics
Songbooks are teporarily down. Dont panic. Working on recovering it. Dont save new songs in songbooks!


Follow Me  Rufio

1985
2003 Nitro Records
submitted by: boxcar_canuck@yahoo.com
This is 100% correct
Chords used
C- x32010
C/B- x2x010
Am- x02210
[F-]G- [133211]320033
Em- 022000
Verse 1:
You're all i [C]see these days
but you're [C/B]so [Am]far away
this dream is [F]never ending
you're [G]falling thru my [C]broken mind
ive been [C/B]caught [Am]up this time
finally sho[F]wing some passion
these [G]shattered eyes
have [Am]broken over the [G]thought of leaving [F]you[G]
 
 Am--F-G-Am--C-G-Am--F-G-Am--C

but i must go
in[C]side my heart
i'm ma[C/B]king s[Am]pend time on
on first thinking that you've [F]stolen my heart
and en[G]trapped my mind
im [C]giving in to you
[C/B]im [Am]lost again
i see there [F]is no difference were [G]still alone
Chorus:
[Am]so come [F]home with me to[C]night
we'll wait till [G]dark turns light
[Am]cant fight this [F]feeling in my [C]soul
i'm lost in [G]thoughts[F]
no way[G] you're gone[Am]
silence[C] evolves[F]
no way[G] your gone[Am]
 
 C F--Am--F-G-Am--G

follow me home
Verse 2:
[C]something strange in me
[C/B]i [Am]feel the same for you
but there [F]is no difference
were [G]still alone
there [C]is no need in cr[C/B]ying
there [Am]is no need in dying
it [F]makes no difference
were [G]still alone
(Repeat Chorus except last line)
 
 C F--G----

follow me home
Bridge:
Guitar 1: Am--Em-F--G (x2)
Guitar 2: Clark Domae tabbed started at 2:26
 
 e|------------------------------------------------------------------
 B|----------1---0---------1---0---------1---0-----3-3-3-3-3-3-3/4/5-
 G|-0~h1h2-2---2----0--2-2---2----0--2-2---2----0--------------------
 D|------------------------------------------------------------------
 A|------------------------------------------------------------------
 E|------------------------------------------------------------------
 e|-------------------------------------------------------------
 B|-----1---0---------1---0---------1---0-----3-3-3-3-3-3-3/4/5-
 G|-2-2---2----0--2-2---2----0--2-2---2----0--------------------
 D|-------------------------------------------------------------
 A|-------------------------------------------------------------
 E|-------------------------------------------------------------
 e|-------------------------------------------------------------
 B|-----1---0---------1---0---------1---0---1---3---1---0---2---
 G|-2-2---2----0--2-2---2----0--2-2---2---2---2---2---2---2-----
 D|-------------------------------------------------------------
 A|-------------------------------------------------------------
 E|-------------------------------------------------------------
 e|--------------------------------------------------
 B|-----1---0---------1---0-----3-3-3/4-4-4-4-4-4/5--
 G|-2-2---2----0--2-2---2----0-----------------------
 D|--------------------------------------------------
 A|--------------------------------------------------
 E|--------------------------------------------------

(Repeat Chorus except last line)
Coda:
follow[C] me home[F]
no way[G] you're gone[Am]
silence[C] evolves[F]
 
 G Am--F-G-Am--C-G-Am--F-G-Am--C

no way your gone
F(Hold)

Important: The song above is NOT stored on the Chordie server. The original song is hosted at www.guitaretab.com. Chordie works as a search engine and provides on-the-fly formatting. Chordie does not index songs against artists'/composers' will. To remove this song please click here.

Text color:
Chord color:
Chord grids: 
Font size:    
Page size: 

Am C C/B F G
Rate #1 of 2 versions

Jango Player

Login - add to songbook

SHARE PAGE  



You need to log in to post comments