Guitar Tabs, Chords and Lyrics
Login is temporarily disabled for some users. Do not panic. Will be back in an hour or two. DO NOT REREGISTER!!


Control  Rufio

1985
2003 Nitro records
Submitted by: paramore_fans@yahoo.com
This song resembles Kelly clarkson's Breakaway especially in chorus
Key: D
Tuning: Dropd D
Chords used: Drop D only
B5 - x244xx
G5 - 555xxx
A5 - x022xx
A/C# - x476xx
F#5 - 444xxx
D5 - 000xxx
Intro: Bm---G
Palm muted
 
 e|-------------------------|
 B|-------2-3-----------2---|
 G|-4-4-4------02-2-2-4---2-|
 D|-----------4-------------| repeat many times
 A|-------------------------|
 D|-------------------------|

^
press these keys faster 4,0,2
Verse 1:
[B5]If I could, I'd [G5]prove you [A5]wrong
And [B5]if I could, I'd [G5]let you [A5]know
Chorus:
You [D5]control, by [G5]your own design
[B5]Knowing [A/C#]you're so [G5]right
When the [D5]sun is gone Life ends [G5]with no hope
Em[B5]brace this [A/C#]in your [G5]arms
Post Chorus: G5(hold)
Verse 2:
[B5]Patience is gone but you've [G5]been left alone
The [B5]troubles are trapped in your [G5]eyes[A5]
[B5] You'll see me again[G5] No time to pretend
Your [B5]everything, your anything, [G5]mine[A5]
Guitar 2: in "you'll see me again..."
 
 e|-14--15------14--15----------12-----------12-----|
 B|---------15----------15--14----------14----------|
 G|---------------------------------14-----------14-|
 D|-------------------------------------------------| (x2)
 A|-------------------------------------------------|
 D|-------------------------------------------------|

[F#5] You've been wonderin[G5]g when your life begins
I've [B5]seen the face of you tonight[G5]
(Repeat Chorus)
Bridge:
 
 G5 A/C# B5--A5--B5--A5

Care to move on And afraid to feel young again, why?
[G5]Now take my hand cuz it [A/C#]seems the way you see his...
Guitar 2: x means palm mute
...might Tell me why
 
 e|--------------------------------------|
 B|--------------------------------------|
 G|-4-xx--x-2-xx--x--4--x--x-----7-------|
 D|-4-xx--x-2-xx--x--4--x--x-4h5---------|
 A|-2-xx--x-0-xx--x--2--x--x-------------|
 D|---xx--x---xx--------x--x-------------|

then
 
 e|----------------------------------|
 B|----------------------------------|
 G|-4-xx--x-2-xx--x--4--x--x---------|
 D|-4-xx--x-2-xx--x--4--x--x---------|
 A|-2-xx--x-0-xx--x--2--x--x-4--5--0-|
 D|---xx--x---xx--------x--x---------|

[G5]Take all that you know in[A/C#]side And leave it behind
Verse 3:
[D5]Its time to say good[G5]bye To [B5]all you fall for[G5]
[D5]Its time to say good[G5]bye An [B5]angel bound to [G5]fly
(Repeat Chorus twice)
Outro:
 
 e|--------------------------------------|
 B|--------------------------------------|
 G|-4-xx--x-2-xx--x--4--x--x-----7-------|
 D|-4-xx--x-2-xx--x--4--x--x-4h5---------|
 A|-2-xx--x-0-xx--x--2--x--x-------------|
 D|---xx--x---xx--x-----x--x-------------|

then
 
 e|----------------------------------|
 B|----------------------------------|
 G|-4-xx--x-2-xx--x--4--x--x---------|
 D|-4-xx--x-2-xx--x--4--x--x-----7---|
 A|-2-xx--x-0-xx--x--2--x--x-4h5-----|
 D|---xx--x---xx--x-----x--x---------|

Embrace this in your arms...
Embrace this in your arms...

Important: The song above is NOT stored on the Chordie server. The original song is hosted at www.guitaretab.com. Chordie works as a search engine and provides on-the-fly formatting. Chordie does not index songs against artists'/composers' will. To remove this song please click here.

Text color:
Chord color:
Chord grids: 
Font size:    
Page size: 

A/C# A5 B5 D5 F#5 G5
Rate #1 of 3 versions

Jango Player

Login - add to songbook

SHARE PAGE  




You need to log in to post comments