Guitar Tabs, Chords and Lyrics
Login is temporarily disabled for some users. Do not panic. Will be back in an hour or two. DO NOT REREGISTER!!


Walk Donâ??t Run   Rufio

 
 -----------------------------------------------------------------------

 


 Walk Don?t Run - Rufio


 

 
 -----------------------------------------------------------------------

 


 Tabbed by: Richie Crowe


 Email: unrealsports2000@yahoo.com


 


 Tuning: Standard


 


 This is only my 2nd tab so bare with me.


 


 | / slide up


 | \ slide down


 | h hammer-on


 | p pull-off


 | ~ let it ring


 


 |Strumming Pattern:


 


 |d= Down


 |u= Up


 


 Guitar 1


 (Play only once)


 

 
 e|-----------------------------------------------------------------------------|
 B|-----------------------------------------------------------------------------|
 G|-------------------------------666-777777777-666-777777777-------------------|
 D|-777-999999999-777-999999999-------------------------------------------------|
 A|-------------------------------444-555555555-444-555555555-------------------|
 E|-555-777777777-555-777777777-------------------------------------------------|

 


 [dud] [uudduddud]  


 


 Guitar 1


 (Guitar 1 and 2 Play together starting here for the whole song)


 

 
 e|-----------------------------------------------------------------------------|
 B|-----------------------------------------------------------------------------|
 G|-------------------------------666-777777777-666-777777777-------------------|
 D|-777-999999999-777-999999999-------------------------------------------------|
 A|-------------------------------444-555555555-444-555555555-------------------|
 E|-555-777777777-555-777777777-----------------------------------------------x3|

 


 Part A


 I see the sand fall? hand A subtle picture, quiet reminder


 We're staring? hour glass When will it run out? When will we run out?


 We've?castles?sand?so long So temporary, I watch them tumble down


 


 Part B


 Surround ourselves? parts It give us comfort, comfort in numbers


 These monuments will always? Our lonely temples, lean too we'll all fall


 Try to appreciate?slow it down life's so? we lay our brother's down


 Guitar 2


 

 
 e|----------------------------------------1110---------------------------------|
 B|-7h8p7/10----------------------7h8p7-10?7 7 -7h8p7-10------------------------|
 G|-----------------------------------------------------------------------------|
 D|-----------------------------------------------------------------------------|
 A|-----------------------------------------------------------------------------|
 E|---------------------------------------------------------------------------x3|

 


 


 Guitar 1


 

 
 e|-----------------------------------------------------------------------------|
 B|-----------------------------------------------------------------------------|
 G|-----------------------------------------------------------------------------|
 D|-555555-555555-555-777-777-555-----------------------------------------------|
 A|-----------------------------------------------------------------------------|
 E|-333333-333333-333-555-555-333-----------------------------------------------|

 


 [Duduud] [duduud] [dud] [uud] [dud] [uud]  


 It?s time to let it go turn back the hand to the beginning


 


 Guitar 2


 

 
 e|-----------------------------------------------------------------------------|
 B|-2h3p2-532-532-534--2h3p2-532-532-534---3~~~~~2~~~~~3~~----------------------|
 G|----------------------------------------2~~~~~2~~~~~4~~----------------------|
 D|-----------------------------------------------------------------------------|
 A|-----------------------------------------------------------------------------|
 E|-----------------------------------------------------------------------------|

 


 [d] [d] [d] 


 Guitar 1


 

 
 e|-----------------------------------------------------------------------------|
 B|-----------------------------------------------------------------------------|
 G|--------------------------------7-9-11-6-7-9-7-4-----------------------------|
 D|-555555-555555-555-777-777-555-----------------------------------------------|
 A|--------------------------------5-7-9 -4-5-7-5-2-----------------------------|
 E|-333333-333333-333-555-555-333-----------------------------------------------|

 


 [Duduud] [duduud] [dud] [uud] [dud] [uud] [d] [d] [d] [d] [d] [d] [d] [d] 


 Wouldn't it be nice? more time Bury yourself under the blanket


 Guitar 2


 

 
 e|-5-2h3p2-5-2h3p2--5-2h3p2-5-2h3p2------2-------------------------------------|
 B|--------3----------------3----------3-5-2-3-5-3------------------------------|
 G|------------------------------------------------4----------------------------|
 D|-----------------------------------------------------------------------------|
 A|-----------------------------------------------------------------------------|
 E|-----------------------------------------------------------------------------|

 


 


 


 


 Guitar 1


 (Second time through stop here--->***)


 

 
 e|-----------------------------------------------------------------------------|
 B|-----------------------------------------------------------------------------|
 G|-----------------------------------------------------------------------------|
 D|-555555-555555-555-777-777-555//---9---7---7/9/11---9---7---7/9/11-----------|
 A|-------------------------------------0---0------------0---0------------------|
 E|-333333-333333-333-555-555-333//---7-0-5-0-5/7/9----7-0-5-0-5/7/9------------| 

 


 [duduud] [duduud] [dud] [uud] [dud] [uud] [d] [d] [d] [d] [d] [d] [d] [d] [d] [d] 


 How do we slow down? How do? run?


 


 Guitar 2


 

 
 e|-5-2h3p2-5-2h3p2--5-2h3p2----------------------------------------------------|
 B|--------3----------------3---------------------------------------------------|
 G|-----------------------------------------------------------------------------|
 D|-----------------------------------------------------------------------------|
 A|-----------------------------------------------------------------------------|
 E|-----------------------------------------------------------------------------|

 


 


 


 Guitar 1


 

 
 e|-----------------------------------------------------------------------------|
 B|-----------------------------------------------------------------------------|
 G|-----------------------------------------------------------------------------|
 D|-9---7---7/9/11--9---7-------------------------------------------------------|
 A|---0---0-----------0---0-----------------------------------------------------|
 E|-7-0-5-0-5/7/9---7-0-5-0-----------------------------------------------------|

 


 


 Guitar 2


 

 
 e|-2---------------2-----------------------------------------------------------|
 B|---3-5-2-2h3h5-----3-5-2?2h3p2-4---------------------------------------------|
 G|-----------------------------------------------------------------------------|
 D|-----------------------------------------------------------------------------|
 A|-----------------------------------------------------------------------------|
 E|-----------------------------------------------------------------------------|

 


 


 Repeat from the top but this time at the *** above, jump down to *** below.


 


 


 


 Guitar 1


 ( *** and pick back up here)


 

 
 e|-----------------------------------------------------------------------------|
 B|-----------------------------------------------------------------------------|
 G|-----------------------------------------6667-------------6667---------------|
 D|-9---7---7/9--9-----------7779-----------------------------------------------|
 A|---0---0---------------------------------4445-------------4445---------------|
 E|-7-0-5-0-5/7--7-----------5557-----------------------------------------------|

 


 [dudu]  


 Guitar 2


 

 
 e|----------------5h7p5-3h5p3?---5h7p5-3h5p3----9h10p9-7h9p7------9h10p9-7h9p7-|
 B|-----------------------------------------------------------------------------|
 G|-----------------------------------------------------------------------------|
 D|-----------------------------------------------------------------------------|
 A|-----------------------------------------------------------------------------|
 E|-----------------------------------------------------------------------------|

 


 


 


 Guitar 1


 

 
 e|-----------------------------------------------------------------------------|
 B|-----------------------------------------------------------------------------|
 G--------------------------------6667------------6667--------------------------|
 D|-7779-----------7779---------------------------------------------------------|
 A|-------------------------------4445------------4445--------------------------|
 E|-5557-----------5557---------------------------------------------------------|

 


 


 Guitar 2


 

 
 e|-----5h7p5-3h5p3----5h7p5-3h5p3----9h10p9-7h9p7----9h10p9-7h9p7--------------|
 B|-----------------------------------------------------------------------------|
 G|-----------------------------------------------------------------------------|
 D|-----------------------------------------------------------------------------|
 A|-----------------------------------------------------------------------------|
 E|-----------------------------------------------------------------------------|

 


 


 


 Guitar 1


 

 
 e|-----------------------------------------------------------------------------|
 B|-----------------------------------------------------------------------------|
 G|------------------------6-7-6/7--6-7-6/7-------------------------------------|
 D|-55?5~~~~~-55-5~~~~----------------------------------------------------------|
 A|------------------------4-5-4/5--4-5-4/5-------------------------------------|
 E|-33?3~~~~~-33-5~~~~--------------------------------------------------------x2|

 


 [dd] [d] [dd] [d] [d] [d] [d] [d] [d] [d] 


 Don't let life pass you by tonight


 Brace inside, brace yourself this time Now I know


 


 Guitar 2


 

 
 e|-23232-0h2h3-23232-0h2h3-----------------------------------------------------|
 B|------------------------23232-0h2h3-23232-0h2h3------------------------------|
 G|-----------------------------------------------------------------------------|
 D|-----------------------------------------------------------------------------|
 A|-----------------------------------------------------------------------------|
 E|---------------------------------------------------------------------------x2|

 


 


 


 Guitar 1


 

 
 e|-----------------------------------------------------------------------------|
 B|-----------------------------------------------------------------------------|
 G|---------------------------------7-9-11-6-7-9-7-4----------------------------|
 D|-555555-555555-555-777-777-555-----------------------------------------------|
 A|---------------------------------5-7-9 -4-5-7-5-2----------------------------|
 E|-333333-333333-333-555-555-333-----------------------------------------------|

 


 [duduud] [duduud] [dud] [uud] [dud] [uud]  


 It's time to let it go Turn back? to the beginning


 


 Guitar 2


 

 
 e|------------------------------------------2----------------------------------|
 B|-2h3p2-532-532-534--2h3p2-532-532-534--3-5-2-3-5-3---------------------------|
 G|--------------------------------------------------4--------------------------|
 D|-----------------------------------------------------------------------------|
 A|-----------------------------------------------------------------------------|
 E|-----------------------------------------------------------------------------|

 


 


 Guitar 1


 

 
 e|-----------------------------------------------------------------------------|
 B|-----------------------------------------------------------------------------|
 G|----------------------------------7-9-11-6-7-9-7-4---------------------------|
 D|-555555-555555-555-777-777-555-----------------------------------------------|
 A|----------------------------------5-7-9 -4-5-7-5-2---------------------------|
 E|-333333-333333-333-555-555-333-----------------------------------------------|

 


 


 Wouldn't it be nice, give it? time Bury yourself under the blanket


 


 Guitar 2


 

 
 e|-5-2h3p2-5-2h3p2--5-2h3p2-5-2h3p2-9,9,9,10,10,10,12,12,10,10,10,9,9,9,7,7----|
 B|--------3----------------3---------------------------------------------------|
 G|-----------------------------------------------------------------------------|
 D|-----------------------------------------------------------------------------|
 A|-----------------------------------------------------------------------------|
 E|-----------------------------------------------------------------------------|

 


 


 


 Guitar 1


 

 
 e|-----------------------------------------------------------------------------|
 B|-----------------------------------------------------------------------------|
 G|-----------------------------------------------------------------------------|
 D|-555555-555555-555-777-777-555//---9---7---7/9/11---9---7---7/9/11-----------|
 A|-------------------------------------0---0------------0---0------------------|
 E|-333333-333333-333-555-555-333//---7-0-5-0-5/7/9----7-0-5-0-5/7/9------------|

 


 


 How do we? How do we? supposed to run?


 


 Guitar 2


 

 
 e|-5-2h3p2-5-2h3p2--5-2h3p2----------------------------------------------------|
 B|--------3----------------3~~~~~~~--------------------------------------------|
 G|-----------------------------------------------------------------------------|
 D|-----------------------------------------------------------------------------|
 A|-----------------------------------------------------------------------------|
 E|-----------------------------------------------------------------------------|

 


 


 


 Guitar 1


 

 
 e|-----------------------------------------------------------------------------|
 B|-----------------------------------------------------------------------------|
 G|-----------------------------------------------------------------------------|
 D|-9---7---7/9/11--9---7-------------------------------------------------------|
 A|---0---0-----------0---0-----------------------------------------------------|
 E|-7-0-5-0-5/7/9---7-0-5-0-----------------------------------------------------|

 


 


 Guitar 2


 

 
 e|-2---------------2-----------------------------------------------------------|
 B|---3-5-2-2h3h5-----3-5-2?2h3h2-----------------------------------------------|
 G|-------------------------------4~~~~~~~--------------------------------------|
 D|-----------------------------------------------------------------------------|
 A|-----------------------------------------------------------------------------|
 E|-----------------------------------------------------------------------------| 


Important: The song above is NOT stored on the Chordie server. The original song is hosted at www.guitaretab.com. Chordie works as a search engine and provides on-the-fly formatting. Chordie does not index songs against artists'/composers' will. To remove this song please click here.

This song is displayed as text-only. Transposing and tuning is only available for chordpro-songs.
Rate #1 of 1 versions

Login - add to songbook

SHARE PAGE  




You need to log in to post comments