Guitar Tabs, Chords and Lyrics
Server problems seems to be fixed. Chordie has been experiencing problems with songs disappearing. These issues now seems to be fixed, but still verifying the fix. If you find anything strange, please email admin@chordie.com.


All That Lasts   Rufio

 
 -----------

 


 "All this waiting..."


 

 
 e|------------------------------------------------|
 B|------------------------------------------------|
 G|----------4------2-------------2------4---------|
 D|---2----4-4--4-2-2--2---2----2-2--2-4-4--4---2--|
 A|-2-2--2-2-2--2-0-0--0-2-2--2-0-0--0-2-2--2-2-2--|
 E|-0-0--0---------------0-0--0---------------0-0--|

 


 . . . . . . . . . . . . .


 "I know it seems..."


 

 
 e|-----------------------------------------------------------------|
 B|-----------------------------------------------------------------|
 G|-----4----6-6-6----8-8-8----9-9-9--------------------------------|
 D|-----4--4-6-6-6--6-8-8-8--8-9-9-9--9-9-9-9----7-7-7------7-7-7-7-|
 A|-222-2--2-4-4-4--4-6-6-6--6-7-7-7--7-9-9-9--9-7-7-7------7-7-7-7-|
 E|-------------------------------------7-7-7--7-5-5-5-5555-5-5-5-5-|

 


 ... ....


 "I gave all my reasons..."


 

 
 e|------------------------------------------------|
 B|------------------------------------------------|
 G|----------4------2-------------2------4---------|
 D|---2----4-4--4-2-2--2---2----2-2--2-4-4--4---2--|
 A|-2-2--2-2-2--2-0-0--0-2-2--2-0-0--0-2-2--2-2-2--|
 E|-0-0--0---------------0-0--0---------------0-0--|

 


 . . . . . . . . . . . . .


 "Excuses evolve..."


 

 
 e|-----------------------------------------------------------------|
 B|-----------------------------------------------------------------|
 G|-----4----6-6-6----8-8-8----9-9-9--------------------------------|
 D|-----4--4-6-6-6--6-8-8-8--8-9-9-9--9-9-9-9----7-7-7------7-7-7-7-|
 A|-222-2--2-4-4-4--4-6-6-6--6-7-7-7--7-9-9-9--9-7-7-7------7-7-7-7-|
 E|-------------------------------------7-7-7--7-5-5-5-5555-5-5-5-5-|

 


 ... ....


 Pre-Chorus


 

 
 ----------

 


 "I'll take it day by day..."


 

 
 e|------------------------------------------------|
 B|------------------------------------------------|
 G|-6~---------4~----------------------------------|
 D|-x----------x-----------7~----------2~----------|
 A|-4~---------2~----------x-----------2~----------|
 E|------------------------5~----------0~----------|
 e|------------------------------------------------|
 B|------------------------------------------------|
 G|-6~---------4~----------------------4~----------|
 D|-x----------x-----------7~----------4~----------|
 A|-4~---------2~----------x-----------2~----^-----|
 E|------------------------5~------------Pickslide-|

 


 


 Chorus


 

 
 ------

 


 "Understand..."


 

 
 e|--------------------------------------------------|
 B|--------------------------------------------------|
 G|-2-2-2-4-4-4-6-6-6-6-6-6--2-2-2-2-2-2-------------|
 D|-2-2-2-4-4-4-6-6-6-6-6-6--2-2-2-2-2-2-2-2-2-2-2-2-|
 A|-0-0-0-2-2-2-4-4-4-4-4-4--0-0-0-0-0-0-2-2-2-2-2-2-|
 E|--------------------------------------0-0-0-0-0-0-|

 


 


 "We're free at last..."


 

 
 e|--------------------------------------------------|
 B|--------------------------------------------------|
 G|-------4-4-4-2-2-2-2------2-2-2-2-2-2-4-4-4-4-4-4-|
 D|-2-2-2-4-4-4-2-2-2-2------2-2-2-2-2-2-4-4-4-4-4-4-|
 A|-2-2-2-2-2-2-0-0-0-0-0000-0-0-0-0-0-0-2-2-2-2-2-2-|
 E|-0-0-0--------------------------------------------|

 


 ....


 "All it means..."


 

 
 e|--------------------------------------------------|
 B|--------------------------------------------------|
 G|-2-2-2-4-4-4-6-6-6-6-6-6--2-2-2-2-2-2-------------|
 D|-2-2-2-4-4-4-6-6-6-6-6-6--2-2-2-2-2-2-2-2-2-2-2-2-|
 A|-0-0-0-2-2-2-4-4-4-4-4-4--0-0-0-0-0-0-2-2-2-2-2-2-|
 E|--------------------------------------0-0-0-0-0-0-|

 


 


 "All that lasts..."


 

 
 e|--------------------------------------------------|
 B|--------------------------------------------------|
 G|-------4-4-4-2-2-2-2------2-2-2-2-2-2-4-4-4-4-4-4-|
 D|-2-2-2-4-4-4-2-2-2-2------2-2-2-2-2-2-4-4-4-4-4-4-|
 A|-2-2-2-2-2-2-0-0-0-0-0000-0-0-0-0-0-0-2-2-2-2-2-2-|
 E|-0-0-0--------------------------------------------|

 


 ....


 Post Chorus


 

 
 --------------------------------------------|
 e|------------------------------------------|
 B|------------------9h10r9-10-9-9-10-12~----|
 G|--------8-9~---99-------9----9------------|
 D|-/6--9------------------------------------|
 A|------------------------------------------|
 E|------------------------------------------|

 


 .. . .


 

 
 e|----------------------------------------------------------|
 B|-9-----10-----12-----10-----9h10r9--9---------------------|
 G|---999----999----999----999-------11---9--8---------------|
 D|---------------------------------------------9-11-9--7--6-|
 A|----------------------------------------------------------|
 E|----------------------------------------------------------|

 


 ... ... ... ...


 Verse


 [-----]"Living life with..."


 

 
 e|-----------------------------|
 B|-----------------------------|
 G|-----------------------------|
 D|-----------------------------|
 A|-7~~~------------------------|
 E|-----------------------------|

 


 "It just makes it..."


 

 
 e|-----------------------------------------------------------------|
 B|-----------------------------------------------------------------|
 G|-----4----6-6-6----8-8-8----9-9-9--------------------------------|
 D|-----4--4-6-6-6--6-8-8-8--8-9-9-9--9-9-9-9----7-7-7------7-7-7-7-|
 A|-222-2--2-4-4-4--4-6-6-6--6-7-7-7--7-9-9-9--9-7-7-7------7-7-7-7-|
 E|-------------------------------------7-7-7--7-5-5-5-5555-5-5-5-5-|

 


 ... ....


 "So raise your voice..."


 

 
 e|------------------------------------------------|
 B|------------------------------------------------|
 G|------------------------------------------------|
 D|--------4-4--4-2-2--2--------2-2--2-4-4--4------|
 A|-2-2--2-2-2--2-0-0--0-2-2--2-0-0--0-2-2--2-2-2--|
 E|-0-0--0---------------0-0--0---------------0-0--|

 


 . . . . . . . . . . . . . . . . . . . .


 "I know this how..."


 

 
 e|-----------------------------------------------------------------|
 B|-----------------------------------------------------------------|
 G|-----4----6-6-6----8-8-8----9-9-9--------------------------------|
 D|-----4--4-6-6-6--6-8-8-8--8-9-9-9--9-9-9-9----7-7-7------7-7-7-7-|
 A|-222-2--2-4-4-4--4-6-6-6--6-7-7-7--7-9-9-9--9-7-7-7------7-7-7-7-|
 E|-------------------------------------7-7-7--7-5-5-5-5555-5-5-5-5-|

 


 ... ....


 Pre-Chorus


 

 
 ----------

 


 "I'll take it day by day..."


 

 
 e|------------------------------------------------|
 B|------------------------------------------------|
 G|-6~---------4~----------------------------------|
 D|-x----------x-----------7~----------2~----------|
 A|-4~---------2~----------x-----------2~----------|
 E|------------------------5~----------0~----------|
 e|------------------------------------------------|
 B|------------------------------------------------|
 G|-6~---------4~----------------------4~----------|
 D|-x----------x-----------7~----------4~----------|
 A|-4~---------2~----------x-----------2~----^-----|
 E|------------------------5~------------Pickslide-|

 


 


 Chorus


 

 
 ------

 


 "Understand..."


 

 
 e|--------------------------------------------------|
 B|--------------------------------------------------|
 G|-2-2-2-4-4-4-6-6-6-6-6-6--2-2-2-2-2-2-------------|
 D|-2-2-2-4-4-4-6-6-6-6-6-6--2-2-2-2-2-2-2-2-2-2-2-2-|
 A|-0-0-0-2-2-2-4-4-4-4-4-4--0-0-0-0-0-0-2-2-2-2-2-2-|
 E|--------------------------------------0-0-0-0-0-0-|

 


 


 "We're free at last..."


 

 
 e|--------------------------------------------------|
 B|--------------------------------------------------|
 G|-------4-4-4-2-2-2-2------2-2-2-2-2-2-4-4-4-4-4-4-|
 D|-2-2-2-4-4-4-2-2-2-2------2-2-2-2-2-2-4-4-4-4-4-4-|
 A|-2-2-2-2-2-2-0-0-0-0-0000-0-0-0-0-0-0-2-2-2-2-2-2-|
 E|-0-0-0--------------------------------------------|

 


 ....


 "All it means..."


 

 
 e|--------------------------------------------------|
 B|--------------------------------------------------|
 G|-2-2-2-4-4-4-6-6-6-6-6-6--2-2-2-2-2-2-------------|
 D|-2-2-2-4-4-4-6-6-6-6-6-6--2-2-2-2-2-2-2-2-2-2-2-2-|
 A|-0-0-0-2-2-2-4-4-4-4-4-4--0-0-0-0-0-0-2-2-2-2-2-2-|
 E|--------------------------------------0-0-0-0-0-0-|

 


 


 "All that lasts..."


 

 
 e|--------------------------------------------------|
 B|--------------------------------------------------|
 G|-------4-4-4-2-2-2-2------2-2-2-2-2-2-4-4-4-4-4-4-|
 D|-2-2-2-4-4-4-2-2-2-2------2-2-2-2-2-2-4-4-4-4-4-4-|
 A|-2-2-2-2-2-2-0-0-0-0-0000-0-0-0-0-0-0-2-2-2-2-2-2-|
 E|-0-0-0--------------------------------------------|

 


 ....


 Solo


 [----]  

 
 e|--------------------------------------------------|
 B|--------------------------------------------------|
 G|-2-2-2-4-4-4-6-6-6-6-6-6--2-2-2-2-2-2-------------|
 D|-2-2-2-4-4-4-6-6-6-6-6-6--2-2-2-2-2-2-2-2-2-2-2-2-|
 A|-0-0-0-2-2-2-4-4-4-4-4-4--0-0-0-0-0-0-2-2-2-2-2-2-|
 E|--------------------------------------0-0-0-0-0-0-|
 e|--------------------------------------------------|
 B|--------------------------------------------------|
 G|-------4-4-4-2-2-2-2------2-2-2-2-2-2-4-4-4-4-4-4-|
 D|-2-2-2-4-4-4-2-2-2-2------2-2-2-2-2-2-4-4-4-4-4-4-|
 A|-2-2-2-2-2-2-0-0-0-0-0000-0-0-0-0-0-0-2-2-2-2-2-2-|
 E|-0-0-0--------------------------------------------|

 


 ....


 Bridge


 

 
 ------

 


 "This is a lesson..."


 

 
 e|-------------------------------------------|
 B|-------------------------------------------|
 G|---------4-2~-------4---------4-2~-------4-|
 D|-2~------4-2~-------4-2~------4-2~-------4-|
 A|-2~------2-0~-------2-2~------2-0~-------2-|
 E|-0~-------------------0~-------------------|
 e|------------------------------------------|
 B|------------------------------------------|
 G|-6~------4-2~-------4---------4-2-2-2-2-2x|
 D|-x-------x-x--------x-2~------4-2-2-2-2-2x|
 A|-4~------2-0~-------2-2~------2-0-0-0-0-0x|
 E|----------------------0~------------------|

 


 


 Chorus


 

 
 ------

 


 "Understand..."


 

 
 e|--------------------------------------------------|
 B|--------------------------------------------------|
 G|-2-2-2-4-4-4-6-6-6-6-6-6--2-2-2-2-2-2-------------|
 D|-2-2-2-4-4-4-6-6-6-6-6-6--2-2-2-2-2-2-2-2-2-2-2-2-|
 A|-0-0-0-2-2-2-4-4-4-4-4-4--0-0-0-0-0-0-2-2-2-2-2-2-|
 E|--------------------------------------0-0-0-0-0-0-|

 


 


 "We're free at last..."


 

 
 e|--------------------------------------------------|
 B|--------------------------------------------------|
 G|-------4-4-4-2-2-2-2------2-2-2-2-2-2-4-4-4-4-4-4-|
 D|-2-2-2-4-4-4-2-2-2-2------2-2-2-2-2-2-4-4-4-4-4-4-|
 A|-2-2-2-2-2-2-0-0-0-0-0000-0-0-0-0-0-0-2-2-2-2-2-2-|
 E|-0-0-0--------------------------------------------|

 


 ....


 "All it means..."


 

 
 e|--------------------------------------------------|
 B|--------------------------------------------------|
 G|-2-2-2-4-4-4-6-6-6-6-6-6--2-2-2-2-2-2-------------|
 D|-2-2-2-4-4-4-6-6-6-6-6-6--2-2-2-2-2-2-2-2-2-2-2-2-|
 A|-0-0-0-2-2-2-4-4-4-4-4-4--0-0-0-0-0-0-2-2-2-2-2-2-|
 E|--------------------------------------0-0-0-0-0-0-|

 


 


 "All that lasts..."


 

 
 e|--------------------------------------------------|
 B|--------------------------------------------------|
 G|-------4-4-4-2-2-2-2------2-2-2-2-2-2-4-4-4-4-4-4-|
 D|-2-2-2-4-4-4-2-2-2-2------2-2-2-2-2-2-4-4-4-4-4-4-|
 A|-2-2-2-2-2-2-0-0-0-0-0000-0-0-0-0-0-0-2-2-2-2-2-2-|
 E|-0-0-0--------------------------------------------|

 


 ....


 Outro


 [-----]  

 
 e|----------------------------------------|
 B|-9-----10-----12-----10-----9h10r9------|
 G|---999----999----999----999--------11-9-|
 D|----------------------------------------|
 A|----------------------------------------|
 E|----------------------------------------|

 


 ... ... ... ...


 


 

 
 e|----------------------------------------|
 B|-9-----10-----12-----10-----9h10r9------|
 G|---999----999----999----999--------11-9-|
 D|----------------------------------------|
 A|----------------------------------------|
 E|----------------------------------------|

 


 ... ... ... ...


 


 

 
 e|----------------------------------------|
 B|-9-----10-----12-----10-----9h10r9------|
 G|---999----999----999----999--------11-9-|
 D|----------------------------------------|
 A|----------------------------------------|
 E|----------------------------------------|

 


 ... ... ... ...


 

 
 e|---------------------------------|
 B|---------------------------------|
 G|---------------------------------|
 D|-2-2x---2-2x---2-2x--------------|
 A|-2-2x---2-2x---2-2x--------------|
 E|-0-0x---0-0x---0-0x--------------|

 


 . . . . . .


 


 Guitar 2


 


 (Silent for intro)


 


 Verse


 [-----] "I know it seems..."


 

 
 e|----------------------------------------------------------------------|
 B|----------------------------------------------------------------------|
 G|-----8--8-9-9-9--9111111-11131313-13161616-16181818----------18181818-|
 D|-----x--x-x-x-x--x-x-x-x--x-x-x-x--x-x-x-x--x-x-x-x-----------x-x-x-x-|
 A|-666-6--6-7-7-7--7-9-9-9--9111111-11141414-14161616-16161616-16161616-|
 E|----------------------------------------------------------------------|

 


 ... . . . .


 "I gave all my reasons..."


 

 
 e|------------------------------------------------|
 B|------------------------------------------------|
 G|----------4------2-------------2------4---------|
 D|---2----4-4--4-2-2--2---2----2-2--2-4-4--4---2--|
 A|-2-2--2-2-2--2-0-0--0-2-2--2-0-0--0-2-2--2-2-2--|
 E|-0-0--0---------------0-0--0---------------0-0--|

 


 . . . . . . . . . . . . .


 "Excuses evolve..."


 

 
 e|----------------------------------------------------------------------|
 B|----------------------------------------------------------------------|
 G|-----8--8-9-9-9--9111111-11131313-13161616-16181818----------18181818-|
 D|-----x--x-x-x-x--x-x-x-x--x-x-x-x--x-x-x-x--x-x-x-x-----------x-x-x-x-|
 A|-666-6--6-7-7-7--7-9-9-9--9111111-11141414-14161616-16161616-16161616-|
 E|----------------------------------------------------------------------|

 


 ... . . . .


 


 Pre-Chorus


 

 
 ----------

 


 "I'll take it day by day..."


 

 
 e|----------------------------------------------------------------|
 B|----------------------------------------------------------------|
 G|-9~---------8~----------6~----------------------6/9----9/11-13~-|
 D|----------------------------------4---4/6-9-6-9-----11----------|
 A|------------------------------------7---------------------------|
 E|----------------------------------------------------------------|

 


 . . . . . .


 

 
 e|------------------------------------------------|
 B|------------------------------------------------|
 G|-9~---------8~----------6-----------4-4-4-4-4-4-|
 D|------------------------------------4-4-4-4-4-4-|
 A|------------------------------------2-2-2-2-2-2-|
 E|------------------------------------------------|

 


 


 Chorus


 

 
 ------

 


 "Understand..."


 

 
 e|-12----11----9-----------------------|
 B|----12----12---9--9-10---10-12----12-|
 G|-----------------------9-------9-----|
 D|-------------------------------------|
 A|-------------------------------------|
 E|-------------------------------------|

 


 "We're free at last..."


 

 
 e|-12----11----12--------12-----12-11-----11-|
 B|----12----12----10--10----10--------12-----|
 G|-------------------------------------------|
 D|-------------------------------------------|
 A|-------------------------------------------|
 E|-------------------------------------------|

 


 "All it means..."


 

 
 e|-12----11----9-----------------------|
 B|----12----12---9--9-10---10-12----12-|
 G|-----------------------9-------9-----|
 D|-------------------------------------|
 A|-------------------------------------|
 E|-------------------------------------|

 


 "All that lasts..."


 

 
 e|-12----11----12--------12-----12-11-----11-|
 B|----12----12----10--10----10--------12-----|
 G|-------------------------------------------|
 D|-------------------------------------------|
 A|-------------------------------------------|
 E|-------------------------------------------|

 


 


 Post-Chorus


 

 
 --------------------------------------------------|
 e|------------------------------------------------|
 B|-------------------12h14r12--14-12--12-14-17~---|
 G|----8-11-13~---1313--------13-----13------------|
 D|-/9---------------------------------------------|
 A|------------------------------------------------|
 E|------------------------------------------------|

 


 . . . .


 

 
 e|--------------------------------------------------------------------|
 B|-12------14------17------14------12h14r12--12-----------------------|
 G|---131313--131313--131313--131313--------14---13--11--8-9-8---------|
 D|-------------------------------------------------------------11--9--|
 A|--------------------------------------------------------------------|
 E|--------------------------------------------------------------------|

 


 . . . . . . . . . . . .


 Verse


 [-----]"Living life with..."


 

 
 e|-----------------------------|
 B|-----------------------------|
 G|-----------------------------|
 D|-6~~~------------------------|
 A|-----------------------------|
 E|-----------------------------|

 


 "It just makes it..."


 

 
 e|----------------------------------------------------------------------|
 B|----------------------------------------------------------------------|
 G|-----8--8-9-9-9--9111111-11131313-13161616-16181818----------18181818-|
 D|-----x--x-x-x-x--x-x-x-x--x-x-x-x--x-x-x-x--x-x-x-x-----------x-x-x-x-|
 A|-666-6--6-7-7-7--7-9-9-9--9111111-11141414-14161616-16161616-16161616-|
 E|----------------------------------------------------------------------|

 


 ... . . . .


 "So raise your voice..."


 

 
 e|------------------------------------------------|
 B|------------------------------------------------|
 G|------------------------------------------------|
 D|--------4-4--4-2-2--2--------2-2--2-4-4--4------|
 A|-2-2--2-2-2--2-0-0--0-2-2--2-0-0--0-2-2--2-2-2--|
 E|-0-0--0---------------0-0--0---------------0-0--|

 


 . . . . . . . . . . . . . . . . . . . .


 "I know this how..."


 

 
 e|----------------------------------------------------------------------|
 B|----------------------------------------------------------------------|
 G|-----8--8-9-9-9--9111111-11131313-13161616-16181818----------18181818-|
 D|-----x--x-x-x-x--x-x-x-x--x-x-x-x--x-x-x-x--x-x-x-x-----------x-x-x-x-|
 A|-666-6--6-7-7-7--7-9-9-9--9111111-11141414-14161616-16161616-16161616-|
 E|----------------------------------------------------------------------|

 


 ... . . . .


 Pre-Chorus


 

 
 ----------

 


 "I'll take it day by day..."


 

 
 e|------------------------------------------------------|
 B|------------------------------------------------------|
 G|-9~---------8~----------6~-------/9---8---------------|
 D|-----------------------------------------9-6-9/11~----|
 A|------------------------------------------------------|
 E|------------------------------------------------------|

 


 . .


 

 
 e|------------------------------------------------|
 B|------------------------------------------------|
 G|-9~---------8~----------6-----------4-4-4-4-4-4-|
 D|-x----------------------------------4-4-4-4-4-4-|
 A|-7~---------------------------------2-2-2-2-2-2-|
 E|------------------------------------------------|

 


 


 Chorus


 

 
 ------

 


 "Understand..."


 

 
 e|-12----11----9-----------------------|
 B|----12----12---9--9-10---10-12----12-|
 G|-----------------------9-------9-----|
 D|-------------------------------------|
 A|-------------------------------------|
 E|-------------------------------------|

 


 "We're free at last..."


 

 
 e|-12----11----12--------12-----12-11-----11-|
 B|----12----12----10--10----10--------12-----|
 G|-------------------------------------------|
 D|-------------------------------------------|
 A|-------------------------------------------|
 E|-------------------------------------------|

 


 "All it means..."


 

 
 e|-12----11----9-----------------------|
 B|----12----12---9--9-10---10-12----12-|
 G|-----------------------9-------9-----|
 D|-------------------------------------|
 A|-------------------------------------|
 E|-------------------------------------|

 


 "All that lasts..."


 

 
 e|-12----11----12--------12-----12-11-----11-|
 B|----12----12----10--10----10--------12-----|
 G|-------------------------------------------|
 D|-------------------------------------------|
 A|-------------------------------------------|
 E|-------------------------------------------|

 


 


 Solo


 [----]  

 
 e|----------------------------------------------|
 B|----------------------------------------------|
 G|-/13--11-13--9-9-9-/14--14-13-13--14r13r11-9--|
 D|----------------------------------------------|
 A|----------------------------------------------|
 E|----------------------------------------------|
 e|----------------------9~---9--11-12-/14--16r14r12-12~----|
 B|-----------------9-12------------------------------------|
 G|-/13--11-9-----9-----------------------------------------|
 D|------------11-------------------------------------------|
 A|---------------------------------------------------------|
 E|---------------------------------------------------------|

 


 . . . .


 Bridge


 

 
 ------

 


 "This is a lesson..."


 

 
 e|-------------------------------------------|
 B|-------------------------------------------|
 G|---------4-2~-------4---------4-2~-------4-|
 D|-2~------4-2~-------4-2~------4-2~-------4-|
 A|-2~------2-0~-------2-2~------2-0~-------2-|
 E|-0~-------------------0~-------------------|
 e|------------------------------------------|
 B|------------------------------------------|
 G|/9~------8-6~-------8-4~-----11-9-9-9-9-9x|
 D|-x-------x-x--------x-x-------x-x-x-x-x-x-|
 A|/7~------6-4~-------6-2~------9-7-7-7-7-7x|
 E|------------------------------------------|

 


 


 Chorus


 

 
 ------

 


 "Understand..."


 

 
 e|-12----11----9-----------------------|
 B|----12----12---9--9-10---10-12----12-|
 G|-----------------------9-------9-----|
 D|-------------------------------------|
 A|-------------------------------------|
 E|-------------------------------------|

 


 "We're free at last..."


 

 
 e|-12----11----12--------12-----12-11-----11-|
 B|----12----12----10--10----10--------12-----|
 G|-------------------------------------------|
 D|-------------------------------------------|
 A|-------------------------------------------|
 E|-------------------------------------------|

 


 "All it means..."


 

 
 e|-12----11----9-----------------------|
 B|----12----12---9--9-10---10-12----12-|
 G|-----------------------9-------9-----|
 D|-------------------------------------|
 A|-------------------------------------|
 E|-------------------------------------|

 


 "All that lasts..."


 

 
 e|-12----11----12--------12-----12-11-----11-|
 B|----12----12----10--10----10--------12-----|
 G|-------------------------------------------|
 D|-------------------------------------------|
 A|-------------------------------------------|
 E|-------------------------------------------|

 


 


 Outro


 [-----]  

 
 e|-----------------------------------------------|
 B|-12------14------17------14------12h14r12------|
 G|---131313--131313--131313--131313--------14-13-|
 D|-----------------------------------------------|
 A|-----------------------------------------------|
 E|-----------------------------------------------|

 


 . . . . . . . . . . . .


 


 

 
 e|-----------------------------------------------|
 B|-12------14------17------14------12h14r12------|
 G|---131313--131313--131313--131313--------14-13-|
 D|-----------------------------------------------|
 A|-----------------------------------------------|
 E|-----------------------------------------------|

 


 . . . . . . . . . . . .


 


 

 
 e|-----------------------------------------------|
 B|-12------14------17------14------12h14r12------|
 G|---131313--131313--131313--131313--------14-13-|
 D|-----------------------------------------------|
 A|-----------------------------------------------|
 E|-----------------------------------------------|

 


 . . . . . . . . . . . .


 

 
 e|---------------------------------|
 B|---------------------------------|
 G|---------------------------------|
 D|-2-2x---2-2x---2-2x--------------|
 A|-2-2x---2-2x---2-2x--------------|
 E|-0-0x---0-0x---0-0x--------------|


Important: The song above is NOT stored on the Chordie server. The original song is hosted at www.guitaretab.com. Chordie works as a search engine and provides on-the-fly formatting. Chordie does not index songs against artists'/composers' will. To remove this song please click here.

This song is displayed as text-only. Transposing and tuning is only available for chordpro-songs.
Rate #1 of 3 versions

Login - add to songbook

SHARE PAGE  




You need to log in to post comments