Guitar Tabs, Chords and Lyrics
Login is temporarily disabled for some users. Do not panic. Will be back in an hour or two. DO NOT REREGISTER!!


In My Eyes  Rufio

Perhaps I suppose
2001 Militia Records
Submitted by: paramore_fans@yahoo.com
Key: Bb
Tuning: Standard EADGBe
Chords used:
Eb - x68886
[Gm]F/A[-] - [355333]x032xx or 587xxx
[F]Bb[-] - [133211]x13331 or 688766
Intro:
[Eb] You're graceful[Gm] your grace [F/A]falls
down a[Bb]round me [F/A]in my eyes
[Eb] You're lovely[Gm] your love [F/A]leaves
So easi[Bb]ly [F/A]in my eyes
 
 Interlude: Gm--F--Bb--Eb x2

Guitar 2:
[Gm] [F] [Bb] [Eb]  
 
 e|------------|------------|------------|---------3-5-
 B|------6-4-3-|------6-4-3-|------6-4-3-|---3-4-6-----
 G|-3--3-------|-5--3-------|-3--3-------|-5-----------
 D|------------|------------|------------|-------------
 A|------------|------------|------------|-------------
 E|------------|------------|------------|-------------

[Gm] [F] [Bb] [Eb]  
 
 e|-6-----13-11-10-|--------13-11-10-|--------13-11-10-|------------------
 B|----11----------|-13--11----------|-11--11----------|-13--11--10--11\6-
 G|----------------|-----------------|-----------------|------------------
 D|----------------|-----------------|-----------------|------------------
 A|----------------|-----------------|-----------------|------------------
 E|----------------|-----------------|-----------------|------------------

Verse 1:
[Gm] Another [Eb]day left waiting
[Bb] alone in my [F]room with
no calls from [Gm]you
So I call you up
[Eb] but you let me down
[Bb] falling down around
[F]everyone except [Gm]yourself[F/A]
Refrain:
[Bb] I thought that this
would never [Gm]end[F/A]
[Bb] things were so clear
but they fell [Gm]through[F/A]
[Bb] High hopes of problems
never [Eb]failed
thinking of the [F]best
Chorus 1:
[Eb] You're graceful[Gm] your grace [F/A]falls
down a[Bb]round me [F/A]in my eyes
[Eb] You're lovely[Gm] your love [F/A]leaves
So easi[Bb]ly [F/A]in my eyes
[Eb] In my eyes
 
 Interlude: Gm--F--Bb--Eb

Guitar 2:
[Gm] [F] [Bb] [Eb]  
 
 e|------------|------------|------------|--------------
 B|------6-4-3-|------6-4-3-|------6-4-3-|--------------
 G|-3--3-------|-5--3-------|-3--3-------|-5--3--2--3---
 D|------------|------------|------------|------------3-
 A|------------|------------|------------|--------------
 E|------------|------------|------------|--------------

Verse 2:
[Gm] Another [Eb]day left crying
[Bb] with you in my [F]room
with nothing left to [Gm]do
You say that it's not right
[Eb] you said its over now
[Bb] Stand still an[F]noyed
with no one a[Gm]round[F/A]
(Repeat Refrain)
Chorus 2:
[Eb] You're graceful[Gm] your grace [F/A]falls
down a[Bb]round me [F/A]in my eyes
[Eb] You're lovely[Gm] your love [F/A]leaves
So easi[Bb]ly [F/A]in my eyes
(Repeat Chorus 1)
Outro: Gm-Eb-Bb-F x4 Gm--Gm(hold)
Guitar 2:
[Gm] [Eb] [Bb] [F]  
 
 e|------------|------------|------------|---------3-5-
 B|------6-4-3-|------6-4-3-|------6-4-3-|---3-4-6-----
 G|-3--3-------|-5--3-------|-3--3-------|-5-----------
 D|------------|------------|------------|-------------
 A|------------|------------|------------|-------------
 E|------------|------------|------------|-------------

Very fast this part:
[Gm]  
 
 e|-10-------11----10-------10-------13-11-10-
 B|----11-11----11----11-11----11-11----------
 G|-------------------------------------------
 D|-------------------------------------------
 A|-------------------------------------------
 E|-------------------------------------------

[Eb]  
 
 e|-10-------11----10-------10-------13-11-10-
 B|----11-11----11----11-11----11-11----------
 G|-------------------------------------------
 D|-------------------------------------------
 A|-------------------------------------------
 E|-------------------------------------------

[Bb]  
 
 e|-10-------11----10-------10-------13-11-10-
 B|----11-11----11----11-11----11-11----------
 G|-------------------------------------------
 D|-------------------------------------------
 A|-------------------------------------------
 E|-------------------------------------------

F(moderate speed again)
 
 e|-----------------------
 B|-13--11--10--11--------
 G|-----------------------
 D|-----------------------
 A|-----------------------
 E|-----------------------

[Gm] [Eb] [Bb] [F]  
 
 e|--------13-11-10-|--------10-11--10-|--------13-11-10-|------------------
 B|-11--11----------|-11--13-----------|-11--11----------|-13--11--10--11\6-
 G|-----------------|------------------|-----------------|------------------
 D|-----------------|------------------|-----------------|------------------
 A|-----------------|------------------|-----------------|------------------
 E|-----------------|------------------|-----------------|------------------

[Gm] [Eb] [Bb] [F]  
 
 e|--------13-11-10-|--------10-11--10-|--------13-11-10-|------------------
 B|-11--11----------|-11--13-----------|-11--11----------|-13--11--10--11\6-
 G|-----------------|------------------|-----------------|------------------
 D|-----------------|------------------|-----------------|------------------
 A|-----------------|------------------|-----------------|------------------
 E|-----------------|------------------|-----------------|------------------

[Gm]  
 
 e|--------------------
 B|-11--------------11-
 G|--------------------
 D|-----12-13-12-------
 A|--------------13----
 E|--------------------


Important: The song above is NOT stored on the Chordie server. The original song is hosted at www.guitaretab.com. Chordie works as a search engine and provides on-the-fly formatting. Chordie does not index songs against artists'/composers' will. To remove this song please click here.

Text color:
Chord color:
Chord grids: 
Font size:    
Page size: 

Bb Eb F Gm
Rate #1 of 1 versions

Jango Player

Login - add to songbook

SHARE PAGE  




You need to log in to post comments