Guitar Tabs, Chords and Lyrics
Major upgrade!! After one year development the new version of Chordie is now online! Please give feedback.


Above Me  Rufio

Perhaps I suppose
2001 Militia Group Records
Submitted by: boxcar_canuck@yahoo.com
Tuning: Standard EADGBe
Chords used:
F/A - x0xx11 or 5xx56x
Bb9 - x13311
Dm - xx0231 or x57765
C - x32010 or x35553
[F] [-] [133211]  
[Gm]C/E[-] - [355333]03x01x
Am - x02210 or 577555
Intro:
Part 1:
Guitar 1: F/A-Bb9-Dm-C (x6)
Guitar 2: pluck the strings fast (x6)
 
 e|-----1-----0---1-----1-----0---1-----1---3---1-------1---1---1p0---|
 B|---------------------------------3-3---3---3---3-1-1---1---1-----1-|
 G|-2-2---2-2---2---3-3---3-3---3-------------------------------------|
 D|-------------------------------------------------------------------|
 A|-------------------------------------------------------------------|
 E|-------------------------------------------------------------------|

Part 2:
Guitar 1:
 
 Bb9-------C(Hold)

Guitar 2:
 
 e|-------------------------------------|
 B|-------------------------------------|
 G|-3-3-3-3-----------------------------|
 D|-3-3-3-3-----------------------------|
 A|-1-1-1-1-------------------------3-5-|
 E|------------6h8--6--5--6-5-3-5-3-----|

Guitar 3:
 
 e|-1-1-1-1-1-1-3-5------------------------------|
 B|-----------------6---6h8--6--5--6-5-3-5-3-----|
 G|------------------------------------------5-7-|
 D|----------------------------------------------|
 A|----------------------------------------------|
 E|----------------------------------------------|

Refrain:
[Dm] If I were to [Bb9]walk till time saw no [F]end
If I were to [C/E]climb till the air was too [Dm]thin
I could not [Bb9]find a picture fit the [F]frame
As perfect as [C/E]you
As perfect as [F---Gm]you
You [Bb9]showed me life and [F/A]lived nothing [Bb9---C]less
[F]Yet you're so a[C]bove me[F/A----Bb9]
F c F/A----Bb9
I'll take my time your memory is bliss
The [F]angel a[C]bove me.
Chorus:
[Bb9] When I look at the [C]stars they shine of your [Dm]eyes
The sky it burns [Am]bright with your presence to[Bb9]night
Yet your so a[C]bove me and I cannot [Dm]fly
To the angel a[Am]bove me I long to be [Bb9]with, [C]with[F/A-Bb9]
[Dm]Angel a[C]bove me.[F/A-Bb9-Dm-C]
Verse:
[Bb9] To [Dm]look at the [Am]mountains [F]vast [C/E]and [Bb9]great
Is one step a[C]bove in [Dm]seeing your [Bb9]face
To [Dm]look at the s[Am]tars for [F]they lead [C/E]the [Bb9]way
To the angel a[C]bove
(Repeat Refrain and Chorus)
Outro:
F/A-Bb9-Dm-C (x4)
F(hold)

Important: The song above is NOT stored on the Chordie server. The original song is hosted at www.guitaretab.com. Chordie works as a search engine and provides on-the-fly formatting. Chordie does not index songs against artists'/composers' will. To remove this song please click here.

Text color:
Chord color:
Chord grids: 
Font size:    
Page size: 

Am Bb9 C C/E Dm F Gm
Rate #3 of 3 versions

Jango Player

Login - add to songbook

SHARE PAGE  



You need to log in to post comments