Guitar Tabs, Chords and Lyrics
Major upgrade!! After one year development the new version of Chordie is now online! Please give feedback.


Face the Truth  Rufio

Perhaps I Suppose
2001 Militia Records
Submitted by: paramore_fans@yahoo.com
Key: G
Tuning: Standard EADGBe
Chords used:
Em - 022000
G/B - x2x033
C - x32010
D - xx0232
D/F# - 2x023x
Intro: x2
[Em] [G/B] [C] [D]  
 
 e|-------|--------|--------|----------|
 B|-------|--------|--------|----------|
 G|-----0-|------0-|------0-|------0---|
 D|---2---|----0---|----0---|----0---0-|
 A|-------|-2------|-3------|-5--------|
 E|-0-----|--------|--------|----------|

[Em] [G/B] [C] [D]  
 
 e|-------|--------|--------|-----------|
 B|-------|--------|--------|------0----|
 G|-----0-|------0-|------0-|----0---0--|
 D|---2---|----0---|----0---|-----------|
 A|-------|-2------|-3------|-5---------|
 E|-0-----|--------|--------|-----------|

Verse:
[D/F#] [G] [C] You take a look around
[D/F#] [G] [C] You don't like what you see
[D/F#] [G] [C] There's people you don't know
[D/F#] [G] [C] But you know they care
Refrain:
[Em] It's [C]been so [G]long since
you've [D/F#]heard the hurting [Em]words
I [C]care for [G]you and
it's [D]right this [Em]time
For[C]get your [G]past
and [D/F#]see what is [Em]now
[C]Even if you [G]don't want
D (Repeat Intro once)
to you gotta face the truth
You gotta face the truth
(Repeat Verse)
Chorus:
[Em] You [C]wait to say goodb[G]ye
"Someday" [D/F#]may come a[Em]long
Not thinking [C]of reali[G]ty
You make the [D]most of your [Em]lies
A broken [C]heart comes crashing [G]down
And you're s[D/F#]tabbed from be[Em]hind
Not willing [C]to admit the [G]truth?
D (Repeat Intro)
Just face the truth
You gotta face the truth
(Repeat Verse and Chorus)
Interlude:
Part 1: Em-G/B-C-D x4
Part 2:
Em-C x3, G-D, Em-C x3, G-D
Guitar 2:
[Em] [C]  
 
 e|-----------------|-3-----2-----2-3-|
 B|-----3-----3---3-|---3-3---3-3-----|
 G|-0-0---0-0---0---|-----------------|
 D|-----------------|-----------------| x3
 A|-----------------|-----------------|
 E|-----------------|-----------------|

[G] [D]  
 
 e|-----------------|-------------------|
 B|-----3-----3---3-|---3-----3-----1-0-|
 G|-0-0---0-0---0---|-2---2-2---2-2-----|
 D|-----------------|-------------------|
 A|-----------------|-------------------|
 E|-----------------|-------------------|

[Em] [C]  
 
 e|-----------------|-3-----2-----2-3-|
 B|-----3-----3---3-|---3-3---3-3-----|
 G|-0-0---0-0---0---|-----------------|
 D|-----------------|-----------------| x3
 A|-----------------|-----------------|
 E|-----------------|-----------------|

[G] [D]  
 
 e|-----------------|---------------|
 B|-----3-----3---3-|---3-----------|
 G|-0-0---0-0---0---|-2---7-7-7-7-7-|
 D|-----------------|-----7-7-7-7-7-|
 A|-----------------|-----5-5-5-5-5-|
 E|-----------------|---------------|

Why don't you care?
(Repeat Chorus except last 2 lines)
Outro:
Em x4
Why don't you care?

Important: The song above is NOT stored on the Chordie server. The original song is hosted at www.guitaretab.com. Chordie works as a search engine and provides on-the-fly formatting. Chordie does not index songs against artists'/composers' will. To remove this song please click here.

Text color:
Chord color:
Chord grids: 
Font size:    
Page size: 

C D D/F# Em G G/B
Rate #1 of 3 versions

Login - add to songbook

SHARE PAGE  




You need to log in to post comments