Guitar Tabs, Chords and Lyrics
Major upgrade!! After one year development the new version of Chordie is now online! Please give feedback.


Subdivisions  Rush

key: F#
Intro: F#
[Bm] [A] [Bm] [A]  
[F#] [Bm] [A] [Bm] [A] [Bm] [A]  
[G] [A] [Bm] [G] [A] [Bm]  
[G] [A] [Bm] [G] [A] [Bm]  
[F#]  
Spr[F#]awling on the fringes of the city
[Bm]In geometric o[A]rder
An in[Bm]sulated bor[A]der
[Bm]In between the [A]bright lights
And th[G]e far u[A]nlit [Bm]unknown [G] [A] [F#]
[F#]Growing up it all seems so one-sided
Opi[Bm]nions all pr[A]ovided
T[Bm]he future pre-[A]decided
D[Bm]etached and subdiv[A]ided
In t[G]he mass produ[A]ction zone[Bm]
[G]Nowhere i[A]s the d[Bm]reamer or the misfit[G] so alo[A]ne [Bm]
(Subdivisions)
[G]In the h[A]igh school h[Bm]alls
[G]In the[A] shopping mal[Bm]ls
[G]Conform or[A] be cast o[Bm]ut
(Subdivisions)
[G]In the b[A]asement [Bm]bars
[G]In the[A] backs of ca[Bm]rs
[G]Be cool or be [A]cast [Bm]out
[G]Any escape might [A]help to smo[Bm]oth
The[A] unattractive tr[Bm]uth
[A]But th[G]e suburbs have no [A]charms to [Bm]soothe
The [A]restless dreams of [Bm]youth
[(G] [A] [Bm] [A] [Bm] [A)]  
[(F#)]  
[F#]Drawn like moths we drift into the city
The [Bm]timeless old attr[A]action
[Bm]Cruising for the a[A]ction
[Bm]Lit up like a [A]firefly
[G]Just t[A]o feel [Bm]the living[G] ni[A]gh[F#]t
[F#]Some will sell their dreams for small desires
Or[Bm] lose the race to r[A]ats
Ge[Bm]t caught in ticking t[A]raps
And[Bm] start to dream of some[A]where
To r[G]elax their r[A]estless fl[Bm]ight
[G]Somewhere [A]out of a m[Bm]emory of [G]lighted str[A]eets on quie[Bm]t nights...
(Subdivisions)
[G]In t[A]he high school h[Bm]alls
[G]In the[A] shopping mal[Bm]ls
[G]Conform or be ca[A]st ou[Bm]t
(Subdivisions)
[G]In the b[A]asement [Bm]bars
[G]In th[A]e backs of c[Bm]ars
[G]Be cool or be [A]cast [Bm]out [G] [A] [Bm]
[(G] [A] [Bm] [A] [Bm] [A)]  
[(G] [A] [Bm)]  
Solo
H q q e e H e e e q
 
 |-------------|-------------|-------------|-------------|
 |-------------|-------------|-------------|-------------|
 |-7~----------|-9---11--9\7-|-9~----------|-4/6\4\2~----|
 |-------------|-------------|-------------|-------------|
 |-5~----------|-7---9---7\5-|-7~----------|-2/4\2\0~----|
 |-------------|-------------|-------------|-------------|

H q q e e H Q Q
 
 |-------------|-------------|-------------|-9-----10----|
 |-8~----------|-10--12--108-|-10----------|-------------|
 |-------------|-------------|-------------|-------------|
 |-------------|-------------|-------------|-------------|
 |-------------|-------------|-------------|-------------|
 |-------------|-------------|-------------|-------------|

e e e q e e e e q e e e e e e e q
 
 |-7-----7-----|-9-----7-----|-9--9--9--9--|-10-10-9-----|
 |-8-8---------|---8-------8-|-10-10-10-10-|-10-10-10----|
 |-----7-----7-|-----7-------|-9--9--9--9--|-9--9--9-----|
 |-------------|-------------|-------------|-------------|
 |-------------|-------------|-------------|-------------|
 |-------------|-------------|-------------|-------------|

[D]q
 
 |-------------|-------------|
 |-------------|-------------|
 |-------------|-------------|
 |-12\---------|-------------|
 |-10\---------|-------------|
 |-------------|-------------|

[G]Any escape might [A]help to smo[Bm]oth
[A]The unattractive t[Bm]ruth
[A]But t[G]he suburbs have no c[A]harms to s[Bm]oothe
The[A] restless dreams of y[Bm]outh
[G] [A] [F#m]  
[G] [A] [Bm]  
[G] [A] [F#m]  
[G] [A] [Bm] [D]  
[G] [A] [F#m]  
[G] [A] [Bm]  
[G] [A] [F#m]  
[G] [A] [Bm] [D]  
[G] [A] [Bm]  
[G] [A] [F#m]  
[G] [G] [G] [G]  

Important: The song above is NOT stored on the Chordie server. The original song is hosted at www.guitaretab.com. Chordie works as a search engine and provides on-the-fly formatting. Chordie does not index songs against artists'/composers' will. To remove this song please click here.

Text color:
Chord color:
Chord grids: 
Font size:    
Page size: 

A Bm D F# F#m G
Rate #1 of 9 versions

Jango Player

Login - add to songbook

SHARE PAGE  



You need to log in to post comments