Guitar Tabs, Chords and Lyrics
Server problems seems to be fixed. Chordie has been experiencing problems with songs disappearing. These issues now seems to be fixed, but still verifying the fix. If you find anything strange, please email admin@chordie.com.


Cherry Lane  Ryan Adams

Ryan Adams - Cherry Lane
Tabbed By Jordi Brown
Standard Tuning
Intro
 
 e-----4-x-5-5--x-4-4-x-5-5---4-4-4-4-3-2----------------------------------|
 b-----5-x-7-7--x-5-5-x-7-7---5-5-5-5-4-3----------------------------------|
 g-----6-x-6-6--x-6-6-x-6-6---6-6-6-6-5-4-------------2----4p2-----2-------|
 d-----6-x-0-0--x-6-6-x-0-0---6-6---6-5-4-----------2-2--2-----4p2---------|
 a----------------------------4-4---4-3-2-------0>4---0--------------------|
 E-----------------------------------------0-0>2---------------------------|

Verse 1
Every [A]Niiiiigggghhhtt, i read this novel, aaa[G]bout you holding roses
in the [A]poring rain.[Asus2]
But the[E] ending's tore up, [G]trying to hail a cab,
G A Asus2, Asus4
Think no one can read you but I can
Pre-Chorus
Well we [C#min]moved into a [F#min/d]house, down on [C#min]cherry [F#min/d]lane
 
 e-------4-----x----x-5------5----x--4-4--x-5------------------------------|
 b-------5-----x----x-7------7----x--5-5--x-7------------------------------|
 g-------6-----x----x-6------6----x--6-6--x-6------------------------------|
 d-------6-----x----x-0--------------6-6--x-0------------------------------|
 a-------------------------------------------------------------------------|
 E-------------------------------------------------------------------------|

C#min N/C
And watch the world go by, am I missing a page?
 
 e--------------4----4--4--------------------------------------------------|
 b--------------5----5--5--------------------------------------------------|
 g--------------6----6--6--------------------------------------------------|
 d--------------6----6--6--------------------------------------------------|
 a--------------4----4--4--------------------------------------------------|
 E-------------------------------------------------------------------------|

Chorus
[Bmin]I wanna [G]be the [D]one who [A]walks you [G]home, who walks you [Dsus2]home [D]tonight.
[Bmin]Stare into your [G]eyes, and then [D]try to [A]explain it,
But its [G]written in a language that was [Dsus2]meant to [D]fuck you up.
N.C A Bmin7 A
And i can never get close enough
 
 e---------x-----x---x---x-x-----------------------------------------------|
 b---------2-----x---3---x-2-----------------------------------------------|
 g---------2-----x---2---x-2-----------------------------------------------|
 d---------2-----x---4---x-2-----------------------------------------------|
 a-------------------------------------------------------------------------|
 E-------------------------------------------------------------------------|

N.C
But I Liiiieeeeeiiieeeeee (Pause)
Verse 2
But iiiiii [A]Liiieee down on your pillow, and i [G]feel like you was [D]going [A]away.
Going [E]away, when you got no [G]place to go,
But, back into her arms, [D]lying on her [A]pillow.
Pre Chorus
[C#min]Curled up with a [F#min/d]book, down on [C#min]Cherry [F#min]Lane.
 
 e--4--------x----x-5-----x----x--4-4--x-5---------------------------------|
 b--5--------x----x-7-----x----x--5-5--x-7---------------------------------|
 g--6--------x----x-6-----x----x--6-6--x-6---------------------------------|
 d--6--------x----x-0-----x----x--6-6--------------------------------------|
 a-------------------------------------------------------------------------|
 E-------------------------------------------------------------------------|

C#min N.C
And the glass it hits the floor, and your walking away.
 
 e-------4-----------------------------------------------------------------|
 b-------5-----------------------------------------------------------------|
 g-------6-----------------------------------------------------------------|
 d-------6-----------------------------------------------------------------|
 a-------------------------------------------------------------------------|
 E-------------------------------------------------------------------------|

Chorus x 2
Outro (Play Sofly)
I can [Bmin]never get close, [G] I can [D]never get close [A]enough
I can [Bmin]never get close, [G] tttoo [D]You.[A]
Repeat till End
This riff comes in over the Outro Chords.
[Bmin] [G] [D] [A]  
 
 e-----7-------------7------------7-------5---------------0----------------|
 b-------10---10-------10---7-------7-------7---7-----7-----5-----5--------|
 g----------7----7--------7---7-----7---7-----7---7-----7-------6----------|
 d-----9-----------9------------9-----9-----7-------7---------7---7--------|
 a-------------------------------------------------------------------------|
 E-------------------------------------------------------------------------|

Keep counting them stars,
Love Jordi.

Important: The song above is NOT stored on the Chordie server. The original song is hosted at www.guitaretab.com. Chordie works as a search engine and provides on-the-fly formatting. Chordie does not index songs against artists'/composers' will. To remove this song please click here.

Text color:
Chord color:
Chord grids: 
Font size:    
Page size: 

A Asus2 Bmin C#min D Dsus2 E F#min G
Rate #3 of 3 versions

Jango Player

Login - add to songbook

SHARE PAGE  




You need to log in to post comments