Guitar Tabs, Chords and Lyrics
Major upgrade!! After one year development the new version of Chordie is now online! Please give feedback.


Off Broadway  Ryan Adams

Title : Off Broadway
Artist : Ryan Adams
Album : Easy Tiger
Transcribed by : Michael George Drexler (stadtlichtermusik@gmx.de)
Notes : -
 

- Standard Tune
- No Capo
Chords:
D D/G Em7 A* Bm7 G
 
 e --2-- --0-- --0-- --0-- --2-- -(3)-
 B --3-- --3-- --3-- --2-- --3-- --0--
 G --2-- --2-- --0-- --0-- --2-- --0--
 D --0-- --0-- --0-- --2-- --4-- --0--
 A ----- --x-- --2-- --0-- --2-- --2--
 E ----- --3-- --0-- ----- ----- --3--

Riff 1: by playing A*(7)
 
 e----------------------|
 b----3-2--0-2-3--------|
 g----------------------|
 D----------------------|
 A----------------------|
 E----------------------|

Riff 2:
 
 e---2-0----------------------------------|
 b--------3--2-0-----2--3--5--------------|
 g---------------2-4----------------------|
 D----------------------------------------|
 A----------------------------------------|
 E----------------------------------------|

Riff 3:
 
 e---2-0----------------------------------|
 b--------3-2-----------------------------|
 g------------4--2------------------------|
 D---------------0------------------------|
 A----------------------------------------|
 E----------------------------------------|

Riff 4: just at the end
 
 e---8h9-7-5-4-2-------|(0)>D
 b---------------------|
 g---------------------|
 D---------------------|
 A---------------------|
 E---------------------|

Intro: D , D/G , Em7 , A*
D D/G Em7 A*
Hanging around Broadway, and I think I saw your face
D D/G Em7 A*
Cars speeding by me, reminding me of us
[Bm7]Rats scurry from the gutter[(A)] to the h[G]oles[A]
[Bm7]All these people and they're trying to[(A)] get h[G]ome
Riff 2 (second Guitar plays G)
I don't know where that is anymore
Riff 2 (second Guitar plays G)
I don't know where that is anymore
Riff 2 (second Guitar plays Em7)
I don't know where that is anymore
Riff 2 (second Guitar plays Em7)
I don't know where that is anymore
Riff 3 (second guitar on G)
Used to be off Broadway
D D/G Em7 A*
I miss your locket, and the things you kept inside
[D]And I just can't [D/G]stop i[Em7]t, hasn't killed me y[A]et, but give it time
[Bm7]Shuffle down to the wate[(A)]ring [G]hole[(A)]
[Bm7]Getting tired and I wanna[(A)] go [G]home
Riff 2 (second Guitar plays G)
I don't know where that is anymore
Riff 2 (second Guitar plays G)
I don't know where that is anymore
Riff 2 (second Guitar plays Em7)
I don't know where that is anymore
Riff 2 (second Guitar plays Em7)
I don't know where that is anymore
Riff 3 (second guitar on G)
Used to be off Broadway
Riff 3 (second guitar on Em7)
Used to be off Broadway
Riff 3 (second guitar on G)
Used to be off Broadway
Riff 3 (second guitar on Em7)
Used to be off Broadway
Riff 2
I don't know where that is anymore
Riff 2
I don't know where that is anymore
Riff 2
I don't know where that is anymore
Riff 2
I don't know where that is anymore
Riff 4 D
Used to live off Broadway

Important: The song above is NOT stored on the Chordie server. The original song is hosted at www.guitaretab.com. Chordie works as a search engine and provides on-the-fly formatting. Chordie does not index songs against artists'/composers' will. To remove this song please click here.

Text color:
Chord color:
Chord grids: 
Font size:    
Page size: 

A Bm7 D D/G Em7 G
Rate #2 of 7 versions

Jango Player

Login - add to songbook

SHARE PAGE  



You need to log in to post comments