Guitar Tabs, Chords and Lyrics
Server problems seems to be fixed. Chordie has been experiencing problems with songs disappearing. These issues now seems to be fixed, but still verifying the fix. If you find anything strange, please email admin@chordie.com.


Starlite Diner  Ryan Adams

Starlite Diner - Ryan Adams
From: 29
Standard Tune
No Capo
tabbed by Michael G.Drexler
Chords:
F Bb Bbm F* F*/E C > C Dm > Dm Bb**
 
 e --1-- --6-- --x-- --x-- --x-- --x-- -(0)- -(x)-- --1-- --x--
 B --1-- --6-- --6-- --x-- --x-- --8-- --1-- --10-- --3-- --x--
 G --2-- --7-- --6-- --10- --10- --9-- --0-- --10-- --2-- -(7)-
 D --3-- --8-- -(8)- --10- --10- --10- --2-- --10-- --0-- --10-
 A --3-- --8-- --8-- --8-- --7-- --10- --3-- --12-- ----- --8--
 E --1-- --6-- --6-- --x-- ----- --8-- ----- --10-- ----- --6--

(near the end of the song)
Step 1:
 
 e ||-------------------0->Dm----||
 B ||---------------3-5----------||
 G ||--------2-3--5--------------||
 D ||---3--5---------------------||
 A ||----------------------------||
 E ||----------------------------||

Step 2:
 
 e ||------------------||
 B ||----F-------F/A---||
 G ||---2-3---5--------||
 D ||------------------||
 A ||------------------||
 E ||------------------||

Step 3:
 
 e ||-----------------------||
 B ||-------------3->Dm-----||
 G ||------2-3--5-----------||
 D ||-3--5------------------||
 A ||-----------------------||
 E ||-----------------------||

It's [F]midnight, at the Starlite Diner
step 1 > Dm
You said meet me at a corner to twelve
and I'm standing in the [Bbm]corner
wishing you were [F]here in my a[Dm]rms,
Step 2 > F Bb
fare thee well my old friends
fare thee [F]well
F* F*/E F*
is it possible to love someone too much
you [C]bet
the [Dm]drugs are in safe
and the clothes are on the couch, int[Bb]ertwined
but none of them are yours
and [F]all of them are [Dm]mine[F]
[F]so cry
Step 3 > Dm
cry like a baby into an ocean of wishes
but it don't [Bbm]ever rain
on a street d[F]renched with painted[Dm] ladies
Step 2 > F Bb
fare thee well my old friends
fare thee [F]well[C]
F* F*/E F*
have you ever slept it off to the bones
and [C]woken up at night my [Dm]love
having dreamt you called them [Bb]all
every person [F]you could never lov[Dm]e
it's a [F]blow out
on a birthday cake
and I'm a [Dm]birthday candle
Bb**
floating on the lake
where are [F]you its getting [Dm]late
its [F]midnight at the starlite diner
step 1 > Dm
you said meet me at a corner to twelve
and I'm standing in the [Bb]corner
oh there you [F]are
oh there you [Dm]are
oh there you [Bb]are
oh there you [F]are
[F]  

Important: The song above is NOT stored on the Chordie server. The original song is hosted at www.guitaretab.com. Chordie works as a search engine and provides on-the-fly formatting. Chordie does not index songs against artists'/composers' will. To remove this song please click here.

Text color:
Chord color:
Chord grids: 
Font size:    
Page size: 

Bb Bbm C Dm F
Rate #1 of 5 versions

Jango Player

Login - add to songbook

SHARE PAGE  




You need to log in to post comments