Guitar Tabs, Chords and Lyrics
Server problems seems to be fixed. Chordie has been experiencing problems with songs disappearing. These issues now seems to be fixed, but still verifying the fix. If you find anything strange, please email admin@chordie.com.


A Cautionary Tale   Sabbat

 
 |-----------------------------------------------------------------|
 |-----------------------------------------------------------------|
 |-----------------------------------------------------------------|
 |-----------------------------------------------------------------|
 |-6-------6-------6-----6---------6-------6-------6-----6---------|
 |-4-4444444-4444444-44444-0245-22-4-4444444-4444444-44444-0245-22-| x3

 


 ...... ...... .... .... .. ...... ...... .... .... ..


 


 0:16


 

 
 |-----------------------------------------------------------------|
 |-----------------------------------------------------------------|
 |-----------------------------------------------------------------|
 |-7---------------7---------------7---------------7---------------|
 |-5---------------5---------------7---------------7---------------|
 |-5---------------5-------0245-22-5---------------5-------0245-22-|

 


 .... .. .... ..


 


 0:22


 

 
 |-----------------------------------------------------------------|
 |-----------------------------------------------------------------|
 |-----------------------------------------------------------------|
 |-----------------------------------------------------------------|
 |-6-------6-------6-----6---------6-------6-------6-----6---------|
 |-4-4444444-4444444-44444-0245-22-4-4444444-4444444-44444-0245-22-|

 


 ...... ...... .... .... .. ...... ...... .... .... ..


 


 0:27


 

 
 |-----------------------------------------------------------------|
 |-----------------------------------------------------------------|
 |-----------------------------------------------------------------|
 |-7---------------7---------------7---------------7---------------|
 |-5---------------5---------------7---------------7---------------|
 |-5---------------5-------0245-22-5---------------5-------0245-22-|

 


 .... .. .... ..


 


 0:32 [ ] = First time only


 

 
 |-----------------------------------------------------------------|
 |-----------------------------------------------------------------|
 |-----------------4-------4-6---------------------4-------4-6-----|
 |---------4-------4-------4-6-4-----------4-------4-------4-6-4---|
 |[6]------4-------------------4---6-------4-------------------4---|
 |-4-4-4-4---4-4-4---4-4-4---------4-4-4-4---4-4-4---4-4-4---------| x2

 


 . . . . . . . . . . . . . . . . . .


 


 0:44


 

 
 |-----------------------------------------------------------------|
 |-----------------------------------------------------------------|
 |-----------------------------------------------------------------|
 |-----------------------------------------------------------------|
 |-6-------6-------6-----6---------6-------6-------6-----6---------|
 |-4-4444444-4444444-44444-0245-22-4-4444444-4444444-44444-0245-22-| x3

 


 ...... ...... .... .... .. ...... ...... .... .... ..


 


 1:00


 

 
 |-----------------------------------------------------------------|
 |-----------------------------------------------------------------|
 |-----------------------------------------------------------------|
 |-7---------------7---------------7---------------7---------------|
 |-5---------------5---------------7---------------7---------------|
 |-5---------------5-------0245-22-5---------------5-------0245-22-|

 


 .... .. .... ..


 


 1:05


 

 
 |-----------------------------------------------------------------|
 |-----------------------------------------------------------------|
 |-----------------------------------------------------------------|
 |-----------------------------------------------------------------|
 |-6-------6-------6-----6---------6-------6-------6-----6---------|
 |-4-4444444-4444444-44444-0245-22-4-4444444-4444444-44444-0245-22-|

 


 ...... ...... .... .... .. ...... ...... .... .... ..


 


 1:10


 

 
 |-----------------------------------------------------------------|
 |-----------------------------------------------------------------|
 |-----------------------------------------------------------------|
 |-7---------------7---------------7---------------7---------------|
 |-5---------------5---------------7---------------7---------------|
 |-5---------------5-------0245-22-5---------------5-------0245-22-|

 


 .... .. .... ..


 


 1:16 [ ] = First time only


 

 
 |-----------------------------------------------------------------|
 |-----------------------------------------------------------------|
 |-----------------4-------4-6---------------------4-------4-6-----|
 |---------4-------4-------4-6-4-----------4-------4-------4-6-4---|
 |[6]------4-------------------4-----------4-------------------4---|
 |-4-4-4-4---4-4-4---4-4-4---------4-4-4-4---4-4-4---4-4-4---------| x2

 


 . . . . . . . . . . . . . . . . . . . .


 


 1:27


 

 
 |-----------------------------------------------------------------|
 |-----------------------------------------------------------------|
 |-----------------------------------------------------------------|
 |---------------------4---5---------------------------4---5\4-----|
 |-6-----------5-------2---3-------6-----------5-------2---3\2-----|
 |-4-----------3-------------------4-----------3---------------x-x-|
 |-----------------------------------------------------------------|
 |-----------------------------------------------------------------|
 |-----------------------------------------------------------------|
 |---------------------4---5---------------------------------------|
 |-6-----------5-------2---3-------4---------------4-------4---6---|
 |-4-----------3---------------x-x-2-------2-2-2-2-2-------2---4---|

 


 . . . .


 


 1:34


 

 
 |-----------------------------------------------------------------|
 |-----------------------------------------------------------------|
 |-----------------------------------------------------------------|
 |---------------------4---5---------------------------4---5-4-----|
 |-6-----------5-------2---3-------6-----------5-------2---3-2-----|
 |-4-----------3---------------x-x-4-----------3---------------x-x-|
 |-----------------------------------------------------------------|
 |-----------------------------------------------------------------|
 |-----------------------------------------------------------------|
 |---------------------4---5---------------------------------------|
 |-6-----------5-------2---3---------------6-------6-------6-------|
 |-4-----------3-------------------4---4---4---4-4-4---4-4-4---4-4-|

 


 . . . . . . . .


 


 1:41


 

 
 |-----------------------------------------------------------------|
 |-----------------------------------------------------------------|
 |-----------------------------------------------------------------|
 |---------------------4---5---------------------------4---5\4-----|
 |-6-----------5-------2---3-------6-----------5-------2---3\2-----|
 |-4-----------3-------------------4-----------3---------------x-x-|
 |-----------------------------------------------------------------|
 |-----------------------------------------------------------------|
 |-----------------------------------------------------------------|
 |---------------------4---5---------------------------------------|
 |-6-----------5-------2---3-------4---------------4-------4---6---|
 |-4-----------3---------------x-x-2-------2-2-2-2-2-------2---4---|

 


 . . . .


 


 1:47


 

 
 |-----------------------------------------------------------------|
 |-----------------------------------------------------------------|
 |-----------------------------------------------------------------|
 |---------------------4---5---------------------------4---5\4-----|
 |-6-----------5-------2---3-------6-----------5-------2---3\2-----|
 |-4-----------3---------------x-x-4-----------3---------------x-x-|
 |-----------------------------------------------------------------|
 |-----------------------------------------------------------------|
 |-----------------------------------------------------------------|
 |---------------------4---5---------------------------------------|
 |-6-----------5-------2---3-------4---------------4-------4---4---|
 |-4-----------3---------------x-x-2-------2-2-2-2-2-------2---2---|

 


 . . . .


 


 


 1:54


 

 
 |--------------------------------------------------|
 |--------------------------------------------------|
 |--------------------------------------------------|
 |-------------------------7------------------------|
 |-6-----------6-----------5-----------6------------|
 |-4---4-4-4-4-4---4-4-4-4-----4-4-4-4-4---4-4-4-4--|

 


 . . . . . . . . . . . . . . . .


 


 

 
 |--------------------------------------------------|
 |--------------------------------------------------|
 |--------------------------------------------------|
 |--6-----------------------------------------0-2-3-|
 |--4-----------6-----------4-----------0-2-3-------|
 |------4-4-4-4-4---4-4-4-4-2-----0-2-3-------------| x4

 


 . . . . . . . .


 


 2:17


 

 
 |--------------------------------------------------|
 |--------------------------------------------------|
 |--------------------------------------------------|
 |-------------------------7------------------------|
 |-6-----------6-----------5-----------6------------|
 |-4---4-4-4-4-4---4-4-4-4-----4-4-4-4-4---4-4-4-4--|

 


 . . . . . . . . . . . . . . . .


 


 

 
 |--------------------------------------------------|
 |--------------------------------------------------|
 |--------------------------------------------------|
 |--6-----------------------------------------------|
 |--4-----------6-----------4-----------4-----------|
 |------4-4-4-4-4---4-4-4-4-2---2-2-2-2-2---2-2-2-2-| x4

 


 . . . . . . . . . . . . . . . .


 


 


 Repeat part - 2:17 x3 (Under solo)


 


 


 2:56


 

 
 |--------------------------------------------------|
 |--------------------------------------------------|
 |--------------------------------------------------|
 |--------------------------------------------------|
 |-6---6-------------------6---6--------------------|
 |-4---4-------------------4---4--------------------|
 |--------------------------------------------------|
 |--------------------------------------------------|
 |--------------------------------------------------|
 |--------------------------------------------------|
 |-6---6-------------------4---4---4---4---4---4----|
 |-4---4-------------------2---2---2---2---2---2----|

 


 


 


 Repeat part - 1:54 x4


 


 


 3:24


 

 
 |-----------------------------------------------------------------|
 |-----------------------------------------------------------------|
 |-----------------------------------------------------------------|
 |-----------------------------------------------------------------|
 |-6-------6-------6-----6---------6-------6-------6-----6---------|
 |-4-4444444-4444444-44444-0245-22-4-4444444-4444444-44444-0245-22-| x3

 


 ...... ...... .... .... .. ...... ...... .... .... ..


 


 3:40


 

 
 |-----------------------------------------------------------------|
 |-----------------------------------------------------------------|
 |-----------------------------------------------------------------|
 |-7---------------7---------------7---------------7---------------|
 |-5---------------5---------------7---------------7---------------|
 |-5---------------5-------0245-22-5---------------5-------0245-22-|

 


 .... .. .... ..


 


 3:45


 

 
 |-----------------------------------------------------------------|
 |-----------------------------------------------------------------|
 |-----------------------------------------------------------------|
 |-----------------------------------------------------------------|
 |-6-------6-------6-----6---------6-------6-------6-----6---------|
 |-4-4444444-4444444-44444-0245-22-4-4444444-4444444-44444-0245-22-|

 


 ...... ...... .... .... .. ...... ...... .... .... ..


 


 3:51


 

 
 |-----------------------------------------------------------------|
 |-----------------------------------------------------------------|
 |-----------------------------------------------------------------|
 |-7---------------7---------------7---------------7---------------|
 |-5---------------5---------------7---------------7---------------|
 |-5---------------5-------0245-22-5---------------5-------0245-22-|

 


 .... .. .... ..


 


 3:56 [ ] = First time only


 

 
 |-----------------------------------------------------------------|
 |-----------------------------------------------------------------|
 |-----------------4-------4-6---------------------4-------4-6-----|
 |---------4-------4-------4-6-4-----------4-------4-------4-6-4---|
 |[6]------4-------------------4---6-------4-------------------4---|
 |-4-4-4-4---4-4-4---4-4-4---------4-4-4-4---4-4-4---4-4-4---------| x2

 


 . . . . . . . . . . . . . . . . . .


 


 4:07


 

 
 |-----------------------------------------------------------------|
 |-----------------------------------------------------------------|
 |-----------------------------------------------------------------|
 |-----------------------------------------------------------------|
 |-6-------6-------6-----6---------6-------6-------6-----6---------|
 |-4-4444444-4444444-44444-0245-22-4-4444444-4444444-44444-0245-22-|


Important: The song above is NOT stored on the Chordie server. The original song is hosted at www.guitaretab.com. Chordie works as a search engine and provides on-the-fly formatting. Chordie does not index songs against artists'/composers' will. To remove this song please click here.

This song is displayed as text-only. Transposing and tuning is only available for chordpro-songs.
Rate #1 of 1 versions

Login - add to songbook

SHARE PAGE  




You need to log in to post comments