Guitar Tabs, Chords and Lyrics
Server problems seems to be fixed. Chordie has been experiencing problems with songs disappearing. These issues now seems to be fixed, but still verifying the fix. If you find anything strange, please email admin@chordie.com.


Pride  Saliva

PRIDE
As recorded by Saliva
(From the 2004 Album BACK IN YOUR SYSTEM)
Words by Josey Scott
Music by Chris Dabaldo, Wayne Swinny, and Josey Scott
x x 0[D5] 7 10 x x 4[A/C#] 7 x x x x 3 [C5]5 x x x x 2 [G/B]5 x x x
F5 F#5 E5 D5(type 2)
x 8 10 10 x x x 9 11 11 x x x 7 9 9 x x x 5 7 x x x
F5(type 2) E5(type 2) D5(type 3) Esus2/F#
x 8 10 x x x x 7 9 x x x 0 0 x x x x 4 7 x x x x
F5(type 3) E5(type 3) B5 G5
3 3 x x x x 2 2 x x x x x 2 4 x x x x 10 12 x x x
D5(type 4) D(type 2)
x x 0 2 x x x x 0 7 9 x
Gtr I (Db Ab Db Gb Bb Eb) - 'Dist.'
Gtr II (Db Ab Db Gb Bb Eb) - 'Dist. 2'
Gtr III (Db Ab Db Gb Bb Eb) - 'Dist. 3'
Intro
[D5] [F5D5] [G5D5] [F5D5] [G5D5] [F5D5] [G5D5] [F5D5F5G#5] [D5] 
Gtr I Gtrs I, II
 
 |----|-----------------|-----------------|-----------------|-------------------|
 |----|-----------------|-----------------|-----------------|-------------------|
 |----|-----------------|-----------------|-----------------|-------------------|
 |----|-----------------|-----------------|-----------------|-------------------|
 |--0-|-3-0-3s5-0--0--0-|-3-0-3s5-0--0--0-|-3-0-3s5-0--0--0-|-3-0-3S6-(6)-6-6-0-|
 |--0-|-3-0-3s5-0--0--0-|-3-0-3s5-0--0--0-|-3-0-3s5-0--0--0-|-3-0-3S6-(6)-6-6-0-|

[F5D5] [G5D5] [F5D5] [G5D5] [F5D5] [G5D5] [F5D5F5G#5] [D5]  
 
 |-----------------|-----------------|-----------------|--------------------|
 |-----------------|-----------------|-----------------|--------------------|
 |-----------------|-----------------|-----------------|--------------------|
 |-----------------|-----------------|-----------------|--------------------|
 |-3-0-3s5-0--0--0-|-3-0-3s5-0--0--0-|-3-0-3s5-0--0--0-|-3-0-3S6-(6)-6-6-0--|
 |-3-0-3s5-0--0--0-|-3-0-3s5-0--0--0-|-3-0-3s5-0--0--0-|-3-0-3S6-(6)-6-6-0--|

[F5D5] [G5D5] [F5D5] [G5D5]  
 
 |-------------------|-------------------|
 |-------------------|-------------------|
 |-------------------|-------------------|
 |-------------------|-------------------|
 |-3-0-3s5--0---0--0-|-3-0-3s5--0---0--0-|
 |-3-0-3s5--0---0--0-|-3-0-3s5--0---0--0-|

|
| Gtr III
 
 |-------------------|-------------------|
 |-------------------|-------------------|
 |---------10--10----|---------10--10----|
 |---------10--10----|---------10--10----|
 |-------------------|-------------------|
 |-------------------|-------------------|

[F5D5] [G5D5] [F5D5F5G#5] [D5]  
 
 |-------------------|--------------------|
 |-------------------|--------------------|
 |-------------------|--------------------|
 |-------------------|--------------------|
 |-3-0-3s5--0---0--0-|-3-0-3S6-(6)-6-6-0--|
 |-3-0-3s5--0---0--0-|-3-0-3S6-(6)-6-6-0--|

|
 
 |-------------------|--------------------|
 |-------------------|--------------------|
 |---------10--10----|--------------------|
 |---------10--10----|--------------------|
 |-------------------|--------------------|
 |-------------------|--------------------|

Verse 1
[F5D5G5D5] [F5D5G5D5] [F5D5G5D5]  
 
 PM------------------------------------------|
 |---------------|---------------|---------------|
 |---------------|---------------|---------------|
 |---------------|---------------|---------------|
 |---------------|---------------|---------------|
 |-3-0-5-0--0--0-|-3-0-5-0--0--0-|-3-0-5-0--0--0-|
 |-3-0-5-0--0--0-|-3-0-5-0--0--0-|-3-0-5-0--0--0-|

[F5D5G5D5]Gtrs I, II[F5D5G5D5] [F5D5G5D5]
 
 PM------------------------------------------|
 |---------------|---------------|---------------|
 |---------------|---------------|---------------|
 |---------------|---------------|---------------|
 |---------------|---------------|---------------|
 |-3-0-5-0--0--0-|-3-0-5-0--0--0-|-3-0-5-0--0--0-|
 |-3-0-5-0--0--0-|-3-0-5-0--0--0-|-3-0-5-0--0--0-|

|
| Gtr III
| TP TP TP TP
 
 |---------------|-------8--8----|-------8--8----|
 |---------------|---------------|---------------|
 |---------------|---------------|---------------|
 |---------------|---------------|---------------|
 |---------------|---------------|---------------|
 |---------------|---------------|---------------|

[F5D5G5D5] [F5D5G5D5]  
 
 PM--------------------------|
 |---------------|---------------|
 |---------------|---------------|
 |---------------|---------------|
 |---------------|---------------|
 |-3-0-5-0--0--0-|-3-0-5-0--0--0-|
 |-3-0-5-0--0--0-|-3-0-5-0--0--0-|

|
| TP TP TP TP
 
 |-------8--8----|-------8--8----|
 |---------------|---------------|
 |---------------|---------------|
 |---------------|---------------|
 |---------------|---------------|
 |---------------|---------------|

Pre-Chorus
[D5]Gtr III[E7/D] [E7/D] [D5]
 
 |------------------|-----10-10--10-10\----|
 |-10--10--10--10-9-|-(9)--9--9---9--9\----|
 |--7---7---7---7-7-|-(7)--7--7---7--7\----|
 |--0---0---0---0-0-|-(0)--0--0---0--0-----|
 |------------------|----------------------|
 |------------------|----------------------|

|
| Gtrs I, II
 
 |------------------|----------------------|
 |------------------|----------------------|
 |--7---7---7---7-7-|-(7)--7--7---7--7\----|
 |--7---7---7---7-6-|-(6)--6--6---6--6\----|
 |--5---5---5---5-5-|-(5)--5--5---5--5\--0-|
 |------------------|--------------------0-|

[F5D5] [G5D5] [F5D5] [G5D5]  
 
 |-------------------|---------------------|
 |-------------------|---------------------|
 |---------10--10----|---------10--10------|
 |---------10--10----|---------10--10------|
 |-------------------|---------------------|
 |-------------------|---------------------|

|
 
 |-------------------|---------------------|
 |-------------------|---------------------|
 |-------------------|---------------------|
 |-------------------|---------------------|
 |-3-0-3s5--0---0--0-|-3-0-3s5--0---0--0---|
 |-3-0-3s5--0---0--0-|-3-0-3s5--0---0--0---|

[D5] [E7/D] [E7/D] [D5]  
 
 |------------------|-----10-10--10-10\----|
 |-10--10--10--10-9-|-(9)--9--9---9--9\----|
 |--7---7---7---7-7-|-(7)--7--7---7--7\----|
 |--0---0---0---0-0-|-(0)--0--0---0--0-----|
 |------------------|----------------------|
 |------------------|----------------------|

|
 
 |------------------|----------------------|
 |------------------|----------------------|
 |--7---7---7---7-7-|-(7)--7--7---7--7\----|
 |--7---7---7---7-6-|-(6)--6--6---6--6\----|
 |--5---5---5---5-5-|-(5)--5--5---5--5\--0-|
 |------------------|--------------------0-|

[F5D5] [G5D5] [F5D5] [G5D5]  
 
 |-------------------|---------------------|
 |-------------------|---------------------|
 |---------10--10----|---------10--10------|
 |---------10--10----|---------10--10------|
 |-------------------|---------------------|
 |-------------------|---------------------|

|
 
 |-------------------|---------------------|
 |-------------------|---------------------|
 |-------------------|---------------------|
 |-------------------|---------------------|
 |-3-0-3s5--0---0--0-|-3-0-3s5--0---0--0---|
 |-3-0-3s5--0---0--0-|-3-0-3s5--0---0--0---|

Chorus
[D5]Gtrs I, II[A/C#] [C5] [G/B]
| | | | | | | | | | | | | | | | | | |
[/] [/] [/] [/] [/] [/] [/] [/] [/] [/] [/] [/] [/] [/] [/] [/] [/] [/] [/] 
Gtr III
 
 |---------------|--------------------|---------------------|
 |---------------|--------------------|---------------------|
 |-7--7--7-7-7-9-|-(9)-9--9-(9)-9-9-9-|-10--10--10-10-10-12-|
 |-x--x--x-x-x-x-|-(x)-x--x-(x)-x-x-x-|--x---x---x--x--x--x-|
 |-5--5--5-5-5-7-|-(7)-7--7-(7)-7-7-7-|--8---8---8--8--8-10-|
 |---------------|--------------------|---------------------|

[G/B] | | | [F5] | | [E5] | [D5]| | | | | [A/C#]| | | | | | | |
[/] [/] [/] [/] [/] [/] [/] [/] [/] [/] [/] [/] [/] [/] [/] [/] [/] [/] [/] 
 
 |------------------------|---------------|--------------------|
 |------------------------|---------------|--------------------|
 |-(12)-12-12--12-12-12\--|-7--7--7-7-7-9-|-(9)-9--9-(9)-9-9-9-|
 |--(x)--x--x---x--x--x\--|-x--x--x-x-x-x-|-(x)-x--x-(x)-x-x-x-|
 |-(10)-10-10--10-10-10\--|-5--5--5-5-5-7-|-(7)-7--7-(7)-7-7-7-|
 |------------------------|---------------|--------------------|

Interlude
[C5] | | | | | [G/B] | [G/B] | | | | | | [D5]|[F5D5] [G5D5]
[/] [/] [/] [/] [/] [/] [/] [/] [/] [/] [/] [/] [/] 
Gtrs I, II
 
 |---------------------|----------------------||-------------------|
 |---------------------|----------------------||-------------------|
 |-10--10--10-10-10-12-|-12-12-12--12-12-12\--||-------------------|
 |--x---x---x--x--x--x-|--x--x--x---x--x--x\--||-------------------|
 |--8---8---8--8--8-10-|-10-10-10--10-10-10\--||-3-0-3s5--0---0--0-|
 |---------------------|----------------------||-3-0-3s5--0---0--0-|

|
| Gtr III
 
 |---------------------|----------------------||-------------------|
 |---------------------|----------------------||-------------------|
 |---------------------|----------------------||---------10--10----|
 |---------------------|----------------------||---------10--10----|
 |---------------------|----------------------||-------------------|
 |---------------------|----------------------||-------------------|

[F5D5] [G5D5] [F5D5] [G5D5] [F5D5F5G#5] [D5]  
 
 |-------------------|-------------------|--------------------|
 |-------------------|-------------------|--------------------|
 |-------------------|-------------------|--------------------|
 |-------------------|-------------------|--------------------|
 |-3-0-3s5--0---0--0-|-3-0-3s5--0---0--0-|-3-0-3S6-(6)-6-6-0--|
 |-3-0-3s5--0---0--0-|-3-0-3s5--0---0--0-|-3-0-3S6-(6)-6-6-0--|

|
 
 |-------------------|-------------------|--------------------|
 |-------------------|-------------------|--------------------|
 |---------10--10----|---------10--10----|--------------------|
 |---------10--10----|---------10--10----|--------------------|
 |-------------------|-------------------|--------------------|
 |-------------------|-------------------|--------------------|

Verse 2
[F5D5G5D5] [F5D5G5D5] [F5D5G5D5]  
 
 PM------------------------------------------|
 |---------------|---------------|---------------|
 |---------------|---------------|---------------|
 |---------------|---------------|---------------|
 |---------------|---------------|---------------|
 |-3-0-5-0--0--0-|-3-0-5-0--0--0-|-3-0-5-0--0--0-|
 |-3-0-5-0--0--0-|-3-0-5-0--0--0-|-3-0-5-0--0--0-|

[F5D5G5D5] [F5D5G5D5] [F5D5G5D5]  
 
 PM------------------------------------------|
 |---------------|---------------|---------------|
 |---------------|---------------|---------------|
 |---------------|---------------|---------------|
 |---------------|---------------|---------------|
 |-3-0-5-0--0--0-|-3-0-5-0--0--0-|-3-0-5-0--0--0-|
 |-3-0-5-0--0--0-|-3-0-5-0--0--0-|-3-0-5-0--0--0-|

|
| Gtr III
| TP TP TP TP
 
 |---------------|-------8--8----|-------8--8----|
 |---------------|---------------|---------------|
 |---------------|---------------|---------------|
 |---------------|---------------|---------------|
 |---------------|---------------|---------------|
 |---------------|---------------|---------------|

[F5D5G5D5] [F5D5G5D5]  
 
 PM--------------------------|
 |---------------|---------------|
 |---------------|---------------|
 |---------------|---------------|
 |---------------|---------------|
 |-3-0-5-0--0--0-|-3-0-5-0--0--0-|
 |-3-0-5-0--0--0-|-3-0-5-0--0--0-|

|
| TP TP
 
 |-------8--8----|---------------|
 |---------------|---------------|
 |---------------|---------------|
 |---------------|---------------|
 |---------------|---------------|
 |---------------|---------------|

Pre-Chorus
D5 D(type 2) D5
Gtr III
 
 |------------------|-----10-10--10-10\----|
 |-10--10--10--10-9-|-(9)--9--9---9--9\----|
 |--7---7---7---7-7-|-(7)--7--7---7--7\----|
 |--0---0---0---0-0-|-(0)--0--0---0--0-----|
 |------------------|----------------------|
 |------------------|----------------------|

|
| Gtrs I, II
 
 |------------------|----------------------|
 |------------------|----------------------|
 |--7---7---7---7-7-|-(7)--7--7---7--7\----|
 |--7---7---7---7-6-|-(6)--6--6---6--6\----|
 |--5---5---5---5-5-|-(5)--5--5---5--5\--0-|
 |------------------|--------------------0-|

[F5D5] [G5D5] [F5D5] [G5D5]  
 
 |-------------------|---------------------|
 |-------------------|---------------------|
 |---------10--10----|---------10--10------|
 |---------10--10----|---------10--10------|
 |-------------------|---------------------|
 |-------------------|---------------------|

|
 
 |-------------------|---------------------|
 |-------------------|---------------------|
 |-------------------|---------------------|
 |-------------------|---------------------|
 |-3-0-3s5--0---0--0-|-3-0-3s5--0---0--0---|
 |-3-0-3s5--0---0--0-|-3-0-3s5--0---0--0---|

D5 D(type 2) D5
 
 |------------------|-----10-10--10-10\----|
 |-10--10--10--10-9-|-(9)--9--9---9--9\----|
 |--7---7---7---7-7-|-(7)--7--7---7--7\----|
 |--0---0---0---0-0-|-(0)--0--0---0--0-----|
 |------------------|----------------------|
 |------------------|----------------------|

|
 
 |------------------|----------------------|
 |------------------|----------------------|
 |--7---7---7---7-7-|-(7)--7--7---7--7\----|
 |--7---7---7---7-6-|-(6)--6--6---6--6\----|
 |--5---5---5---5-5-|-(5)--5--5---5--5\--0-|
 |------------------|--------------------0-|

[F5D5] [G5D5] [F5D5] [G5D5]  
 
 |-------------------|---------------------|
 |-------------------|---------------------|
 |---------10--10----|---------10--10------|
 |---------10--10----|---------10--10------|
 |-------------------|---------------------|
 |-------------------|---------------------|

|
 
 |-------------------|---------------------|
 |-------------------|---------------------|
 |-------------------|---------------------|
 |-------------------|---------------------|
 |-3-0-3s5--0---0--0-|-3-0-3s5--0---0--0---|
 |-3-0-3s5--0---0--0-|-3-0-3s5--0---0--0---|

Chorus
[D5]Gtrs I, II[A/C#] [C5] [G/B]
| | | | | | | | | | | | | | | | | | |
[/] [/] [/] [/] [/] [/] [/] [/] [/] [/] [/] [/] [/] [/] [/] [/] [/] [/] [/] 
 
 ||----------------|--------------------|---------------------|
 ||o---------------|--------------------|---------------------|
 ||--7--7--7-7-7-9-|-(9)-9--9-(9)-9-9-9-|-10--10--10-10-10-12-|
 ||--x--x--x-x-x-x-|-(x)-x--x-(x)-x-x-x-|--x---x---x--x--x--x-|
 ||o-5--5--5-5-5-7-|-(7)-7--7-(7)-7-7-7-|--8---8---8--8--8-10-|
 ||----------------|--------------------|---------------------|

[G/B] | | | [F5] | | [E5] | [D5]| | | | | [A/C#]| | | | | | | |
[/] [/] [/] [/] [/] [/] [/] [/] [/] [/] [/] [/] [/] [/] [/] [/] [/] [/] [/] 
 
 |----------------------|---------------|--------------------|
 |----------------------|---------------|--------------------|
 |-12-12-12--12-12-12\--|-7--7--7-7-7-9-|-(9)-9--9-(9)-9-9-9-|
 |--x--x--x---x--x--x\--|-x--x--x-x-x-x-|-(x)-x--x-(x)-x-x-x-|
 |-10-10-10--10-10-10\--|-5--5--5-5-5-7-|-(7)-7--7-(7)-7-7-7-|
 |----------------------|---------------|--------------------|

[C5] | | | | | [G/B] | | | | | | | |
[/] [/] [/] [/] [/] [/] [/] [/] [/] [/] [/] [/] [/] 
 
 |---------------------|-------------------------||
 |---------------------|------------------------o||
 |-10--10--10-10-10-12-|-(12)-12-12--12-12-12\---||
 |--x---x---x--x--x--x-|--(x)--x--x---x--x--x\---||
 |--8---8---8--8--8-10-|-(10)-10-10--10-10-10\--o||
 |---------------------|-------------------------||

Bridge
[B5]Gtrs I, II[C5] [G5] [D5]
| | | | || | | | | | | | | | | |
[/] [/] [/] [/] [//] [/] [/] [/] [/] [/] [/] [/] [/] [/] [/] [/] 
Gtr III
~~~~~~
 
 |---------------|---------------------------|---------------------|
 |-----------7b8-|-(7)pb8-7------------------|---------------10b12-|
 |--------7------|-----------9-(9)-(9)\-/5---|------------7--------|
 |-----/9--------|-------------------------5-|-(5)---0-/9----------|
 |---------------|---------------------------|---------------------|
 |---------------|---------------------------|---------------------|

[D5] | | | | | [B5] | | | | |[C5]|
[/] [/] [/] [/] [/] [/] [/] [/] [/] [//] 
~~ ~~~~~~~~~~~~~~~
 
 |------------------------|--------------------------|
 |-(10)-10--8-(8)-7-------|----------------------7b8-|
 |-------------------9b11-|-(9)pb11---(9)\----7------|
 |------------------------|----------------/9--------|
 |------------------------|--------------------------|
 |------------------------|--------------------------|

| | | | |
[/] [/] [/] [/] [/]  
~
 
 |---------------------------|
 |-(7)pb8-7b8r(7)------------|
 |----------------9-(9)-7-7--|
 |---------------------------|
 |---------------------------|
 |---------------------------|

[G5] | | | | | [F5]|
[/] [/] [/] [/] [/] [/] 
 
 |--7------7-----8-----(8)------10-----|
 |-10b12--10b12-11b13-(11)pb13--13b15--|
 |-------------------------------------|
 |-------------------------------------|
 |-------------------------------------|
 |-------------------------------------|

| | | | | | [D5] |
[/] [/] [/] [/] [/] [/] [/] 
 
 |-13------13------13-----13------13-----13------13\-----|

|-16b18===16pb18==16pb18-16pb18==16pb18-16pb18==16pb18\-|
 
 |-------------------------------------------------------|
 |-------------------------------------------------------|
 |-------------------------------------------------------|
 |-------------------------------------------------------|

Outro
[F5D5]Gtrs I[G5D5], II[F5D5] [G5D5]
 
 |-------------------|-------------------|
 |-------------------|-------------------|
 |-------------------|-------------------|
 |-------------------|-------------------|
 |-3-0-3s5--0---0--0-|-3-0-3s5--0---0--0-|
 |-3-0-3s5--0---0--0-|-3-0-3s5--0---0--0-|

|
| Gtr III
 
 |-------------------|-------------------|
 |-------------------|-------------------|
 |---------10--10----|---------10--10----|
 |---------10--10----|---------10--10----|
 |-------------------|-------------------|
 |-------------------|-------------------|

[F5D5] [G5D5] [F5D5F5G#5] [D5]  
 
 |-------------------|--------------------|
 |-------------------|--------------------|
 |-------------------|--------------------|
 |-------------------|--------------------|
 |-3-0-3s5--0---0--0-|-3-0-3S6-(6)-6-6-0--|
 |-3-0-3s5--0---0--0-|-3-0-3S6-(6)-6-6-0--|

|
 
 |-------------------|--------------------|
 |-------------------|--------------------|
 |---------10--10----|--------------------|
 |---------10--10----|--------------------|
 |-------------------|--------------------|
 |-------------------|--------------------|

[F5D5] [G5D5] [F5D5] [G5D5] [F5D5] [G5D5] [F5D5F5G#5]  
 
 |-------------------|-------------------|-------------------|-----------------|
 |-------------------|-------------------|-------------------|-----------------|
 |-------------------|-------------------|-------------------|-----------------|
 |-------------------|-------------------|-------------------|-----------------|
 |-3-0-3s5--0---0--0-|-3-0-3s5--0---0--0-|-3-0-3s5--0---0--0-|-3-0-3-6-6-6-6---|
 |-3-0-3s5--0---0--0-|-3-0-3s5--0---0--0-|-3-0-3s5--0---0--0-|-3-0-3-6-6-6-6---|

|
 
 |-------------------|-------------------|-------------------|-----------------|
 |-------------------|-------------------|-------------------|-----------------|
 |---------10--10----|---------10--10----|---------10--10----|-----------------|
 |---------10--10----|---------10--10----|---------10--10----|-----------------|
 |-------------------|-------------------|-------------------|-----------------|
 |-------------------|-------------------|-------------------|-----------------|

[F5D5] [G5D5] [F5D5] [G5D5] [F5D5] [G5D5] [F5D5F] [G#] ~~~[D5]
 
 |-------------------|-------------------|-------------------|------------------|
 |-------------------|-------------------|-------------------|------------------|
 |-------------------|-------------------|-------------------|------------------|
 |-------------------|-------------------|-------------------|------------------|
 |-3-0-3s5--0---0--0-|-3-0-3s5--0---0--0-|-3-0-3s5--0---0--0-|-3-0-----------0--|
 |-3-0-3s5--0---0--0-|-3-0-3s5--0---0--0-|-3-0-3s5--0---0--0-|-3-0-3S6-(6)---0--|

|
 
 |-------------------|-------------------|-------------------|------------------|
 |-------------------|-------------------|-------------------|------------------|
 |---------10--10----|---------10--10----|---------10--10----|------------------|
 |---------10--10----|---------10--10----|---------10--10----|------------------|
 |-------------------|-------------------|-------------------|------------------|
 |-------------------|-------------------|-------------------|------------------|

[F5D5] [G5D5] [F5D5] [G5D5] [F5D5] [G5D5] [F5D5G#] \2
 
 |-------------------|-------------------|-------------------|------------*|
 |-------------------|-------------------|-------------------|------------*|
 |-------------------|-------------------|-------------------|------------*|
 |-------------------|-------------------|-------------------|------------*|
 |-3-0-3s5--0---0--0-|-3-0-3s5--0---0--0-|-3-0-3s5--0---0--0-|-3-0--------*|
 |-3-0-3s5--0---0--0-|-3-0-3s5--0---0--0-|-3-0-3s5--0---0--0-|-3-0-/6-----*|

|
 
 |-------------------|-------------------|-------------------|------------*|
 |-------------------|-------------------|-------------------|------------*|
 |---------10--10----|---------10--10----|---------10--10----|------------*|
 |---------10--10----|---------10--10----|---------10--10----|------------*|
 |-------------------|-------------------|-------------------|------------*|
 |-------------------|-------------------|-------------------|------------*|

Tablature Legend
 
 ----------------

h - hammer-on
p - pull-off
b - bend
pb - pre-bend
r - bend release (if no number after the r, then release immediately)
/\ - slide into or out of (from/to "nowhere")
s - legato slide
S - shift slide
- natural harmonic
(n) - artificial harmonic
n(n) - tapped harmonic
~ - vibrato
tr - trill
T - tap
TP - trem. picking
PM - palm muting
\n/ - tremolo bar dip; n = amount to dip
\n - tremolo bar down
n/ - tremolo bar up
/n\ - tremolo bar inverted dip
= - hold bend; also acts as connecting device for hammers/pulls
- volume swell (louder/softer)
x - on rhythm slash represents muted slash
o - on rhythm slash represents single note slash
Misc Legend
 
 -----------

| - bar
|| - double bar
||o - repeat start
o|| - repeat end
*| - double bar (ending)
: - bar (freetime)
$ - Segno
& - Coda

Important: The song above is NOT stored on the Chordie server. The original song is hosted at www.guitaretab.com. Chordie works as a search engine and provides on-the-fly formatting. Chordie does not index songs against artists'/composers' will. To remove this song please click here.

Text color:
Chord color:
Chord grids: 
Font size:    
Page size: 

A/C# B5 C5 D5 E5 E7/D F5 G# G/B G5
Rate #1 of 4 versions

Jango Player

Login - add to songbook

SHARE PAGE  




You need to log in to post comments