Guitar Tabs, Chords and Lyrics
Major upgrade!! After one year development the new version of Chordie is now online! Please give feedback.


Three Miles Down  Saves the Day

Band: Saves The Day
Song: Three Miles Down
Tune: EADGBe
Athr: tectactoe
 
 -----------------------------------------------------------

Chords Used:
[C] [G] [Em] [F] [Am]  
 
 e|---0---3-------0---5---|
 B|---1---3---0---1---5---|
 G|---0---0---0---2---5---|
 D|---2---0---2---3---7---|
 A|---3---2---2-------7---|
 E|-------3---0-------5---|

[C] Oh [G]great, [Em]here I go a[F]gain I'm stuck in this [C]rut
not sure [G]how to begin.[Em] Oh, s[F]hould I tell you everything?
[C]Oh, I'm [G]feeling [Em]out of l[F]uck, [C] [G]so I [F]won't see you soon
[C] be[G]cause I [Em]know it's t[F]oo soon [C] for [G]you to [Em]see me
 
 e|----0----xx--|
 B|------1--xx--|
 G|---------xx--|
 D|--0------xx--|
 A|---------xx--|
 E|---------xx--|

[C] If this is the [G]last thing you do, just [Em]tell me that
it's [F]okay for me [C] to have these [G]feelings for you [Em]and
it's normal to [F]want to call you.
[C] [G]Oh, I'm [Em]dialing the [F]phone, [C] I'm [G]letting it [F]ring for hours
[C] pre[G]tending to [Em]hear your [F]voice, [C] [G]why does [F]my heart
always [G]beat before yours [C]does? After a [G]while you can[Em]
 
 e|--------0-----|
 B|--1---1---1---|
 G|--0-----------| x4
 D|--2-----------|
 A|--2-----------|
 E|--0-----------|

[Em] make your[F]self believe in a[G]lmost [C]a - [G]ny - [Am]thing
I'm [F]making myself [G]believe in [C]you.

Important: The song above is NOT stored on the Chordie server. The original song is hosted at www.guitaretab.com. Chordie works as a search engine and provides on-the-fly formatting. Chordie does not index songs against artists'/composers' will. To remove this song please click here.

Text color:
Chord color:
Chord grids: 
Font size:    
Page size: 

Am C Em F G
Rate #0 of 7 versions

Login - add to songbook

SHARE PAGE  




You need to log in to post comments