Guitar Tabs, Chords and Lyrics
Server problems seems to be fixed. Chordie has been experiencing problems with songs disappearing. These issues now seems to be fixed, but still verifying the fix. If you find anything strange, please email admin@chordie.com.


Ride Like the Wind  Saxon

As recorded by Saxon
(From the 1988 Album DESTINY)
Transcribed by MRT
Words and Music by Christopher Cross
Arranged by Saxon
[D5]x 5 7 x x x
[F5]x 8 10 x x x
[E5]x 7 9 x x x
[G5]x 10 12 x x x
[Am]x 0 2 2 1 x
[Dm]x 5 7 7 6 5
[Bb]x 1 3 3 3 x
[C]x 3 5 5 5 x
Gtr I (Eb Ab Db Gb Bb Eb) - 'Gtr1'
Gtr II (Eb Ab Db Gb Bb Eb) - 'Gtr2'
Intro
Q=120
[Dm] [C] [Dm] [C] [Bb] 
[4/4] Gtr I
H.. E +E E E E E E E E +H.. E +E E E E E E E E
 
 |-------------|--------------------|--------------|--------------------|
 |-----------5-|-(5)--5-6-x-6-------|------------5-|-(5)--5-6-x-6-5-----|
 |-7---------5-|-(5)--5-5-x-5-5---7-|-(7)--------5-|-(5)--5-5-x-5-5---3-|
 |-7---------5-|-(5)--5-7-x-7-5---7-|-(7)--------5-|-(5)--5-7-x-7-5---3-|
 |-5-----------|------------------5-|-(5)----------|------------------1-|
 |-------------|--------------------|--------------|--------------------|

|
| Gtr II
| H.. E +H.. E +H.. E +H.. E
 
 |-------------|--------------------|--------------|--------------------|
 |-------------|--------------------|--------------|--------------------|
 |-7---------5-|-(5)--------------7-|-(7)--------5-|-(5)--------------3-|
 |-7---------5-|-(5)--------------7-|-(7)--------5-|-(5)--------------3-|
 |-5---------3-|-(3)--------------5-|-(5)--------3-|-(3)--------------1-|
 |-------------|--------------------|--------------|--------------------|

[Bb]+H.. [C]E +E E E E E E E [Dm]E +W Q H E [Dm]E
 
 |--------------|--------------------|------------|----------------|
 |------------5-|-(5)--5-6-x-6-5-----|------------|--------------6-|
 |-(3)--------5-|-(5)--5-5-x-5-5---7-|-(7)--------|--------------7-|
 |-(3)--------5-|-(5)--5-7-x-7-5---7-|-(7)--------|--------------7-|
 |-(1)----------|------------------5-|-(5)--------|----------------|
 |--------------|--------------------|------------|-15\------------|

|
| +H.. E +H.. E +W H.. E
 
 |--------------|--------------------|------------|----------------|
 |--------------|--------------------|------------|----------------|
 |-(3)--------5-|-(5)--------------7-|-(7)--------|--------------7-|
 |-(3)--------5-|-(5)--------------7-|-(7)--------|--------------7-|
 |-(1)--------3-|-(3)--------------5-|-(5)--------|--------------5-|
 |--------------|--------------------|------------|----------------|

1st Verse
[Dm]+E E E E E E E [C]E +E S S E E E E E [Dm]E
 
 |-------------------|---------------------|
 |-(6)-6-5---6-5-6-5-|-------------6-5---6-|
 |-(7)-7-5---5-5-5-5-|-(5)-5s7-5---5-5---7-|
 |-(7)-7-5---7-5-7-5-|-(5)-5s7-5---7-5---7-|
 |-------------------|---------------------|
 |-------------------|---------------------|

|
| PM PM PM PM
| +E E E E E E E E +E E E E E E E E
 
 |-------------------|---------------------|
 |-------------------|---------------------|
 |-------------------|---------------------|
 |-(7)---7---7---7-5-|-(5)-----5---5---5-7-|
 |-(5)-x-5---5-x-5-3-|-(3)-0---3---3-0-3-5-|
 |-------------------|---------------------|

+E E E E E E E [C]E +E S S E E E E E [Bb]E
 
 |-------------------|-----------------------|
 |-(6)-6-5---6-5-6-5-|-------------6-5---3---|
 |-(7)-7-5---5-5-5-5-|-(5)-5s7-5---5-5---3---|
 |-(7)-7-5---7-5-7-5-|-(5)-5s7-5---7-5---3---|
 |-------------------|-----------------------|
 |-------------------|-----------------------|

|
| PM PM PM PM
| +E E E E E E E E +E E E E E E E E
 
 |-------------------|-----------------------|
 |-------------------|-----------------------|
 |-------------------|-----------------------|
 |-(7)---7---7---7-5-|-(5)-----5---5---5-3---|
 |-(5)-x-5---5-x-5-3-|-(3)-0---3---3-0-3-1---|
 |-------------------|-----------------------|

[Bb] [C] [Dm] 
[+E] [E] [E] [E] [E] [E] [E] [E] [+E] [E] [E] [E] [E] [E] [E] [E]  
 
 |--------------------|-------------------|
 |-(3)----6---6-6-----|-------6---6-5---6-|
 |-(3)----5---5-5---5-|-(5)-5-5---5-5---7-|
 |-(3)-/7-7---7-7---5-|-(5)-5-7---7-5---7-|
 |--------------------|-------------------|
 |--------------------|-------------------|

|
| PM PM PM PM
| +E E E E E E E E +E E E E E E E E
 
 |--------------------|-------------------|
 |--------------------|-------------------|
 |--------------------|-------------------|
 |-(3)----3---3---3-5-|-(5)---5---5---5-7-|
 |-(1)--0-1---1-0-1-3-|-(3)-0-3---3-0-3-5-|
 |--------------------|-------------------|

+E E E E E E E [C]E +E S S E E E E E [Dm]E
 
 |-------------------|---------------------|
 |-(6)-6-5---6-5-6-5-|-------------6-5---6-|
 |-(7)-7-5---5-5-5-5-|-(5)-5s7-5---5-5---7-|
 |-(7)-7-5---7-5-7-5-|-(5)-5s7-5---7-5---7-|
 |-------------------|---------------------|
 |-------------------|---------------------|

|
| PM PM PM PM
| +E E E E E E E E +E E E E E E E E
 
 |-------------------|---------------------|
 |-------------------|---------------------|
 |-------------------|---------------------|
 |-(7)---7---7---7-5-|-(5)-----5---5---5-7-|
 |-(5)-x-5---5-x-5-3-|-(3)-0---3---3-0-3-5-|
 |-------------------|---------------------|

[Dm]+E E E E E E E [C]E +E S S E E E E E [Dm]E
 
 |-------------------|---------------------|
 |-(6)-6-5---6-5-6-5-|-------------6-5---6-|
 |-(7)-7-5---5-5-5-5-|-(5)-5s7-5---5-5---7-|
 |-(7)-7-5---7-5-7-5-|-(5)-5s7-5---7-5---7-|
 |-------------------|---------------------|
 |-------------------|---------------------|

|
| PM PM PM PM
| +E E E E E E E E +E E E E E E E E
 
 |-------------------|---------------------|
 |-------------------|---------------------|
 |-------------------|---------------------|
 |-(7)---7---7---7-5-|-(5)-----5---5---5-7-|
 |-(5)-x-5---5-x-5-3-|-(3)-0---3---3-0-3-5-|
 |-------------------|---------------------|

+E E E E E E E [C]E +E S S E E E E E [Bb]E
 
 |-------------------|-----------------------|
 |-(6)-6-5---6-5-6-5-|-------------6-5---3---|
 |-(7)-7-5---5-5-5-5-|-(5)-5s7-5---5-5---3---|
 |-(7)-7-5---7-5-7-5-|-(5)-5s7-5---7-5---3---|
 |-------------------|-----------------------|
 |-------------------|-----------------------|

|
| PM PM PM PM
| +E E E E E E E E +E E E E E E E E
 
 |-------------------|-----------------------|
 |-------------------|-----------------------|
 |-------------------|-----------------------|
 |-(7)---7---7---7-5-|-(5)-----5---5---5-3---|
 |-(5)-x-5---5-x-5-3-|-(3)-0---3---3-0-3-1---|
 |-------------------|-----------------------|

[Bb] [C] [Dm] 
[+E] [E] [E] [E] [E] [E] [E] [E] [+E] [E] [E] [E] [E] [E] [E] [E]  
 
 |--------------------|-------------------|
 |-(3)----6---6-6-----|-------6---6-5---6-|
 |-(3)----5---5-5---5-|-(5)-5-5---5-5---7-|
 |-(3)-/7-7---7-7---5-|-(5)-5-7---7-5---7-|
 |--------------------|-------------------|
 |--------------------|-------------------|

|
| PM PM PM PM
| +E E E E E E E E +E E E E E E E E
 
 |--------------------|-------------------|
 |--------------------|-------------------|
 |--------------------|-------------------|
 |-(3)----3---3---3-5-|-(5)---5---5---5-7-|
 |-(1)--0-1---1-0-1-3-|-(3)-0-3---3-0-3-5-|
 |--------------------|-------------------|

+E E E E E E E [C]E +E S S E E E E E [Bb]E
 
 |-------------------|---------------------|
 |-(6)-6-5---6-5-6-5-|-------------6-5---3-|
 |-(7)-7-5---5-5-5-5-|-(5)-5s7-5---5-5---3-|
 |-(7)-7-5---7-5-7-5-|-(5)-5s7-5---7-5---3-|
 |-------------------|-------------------1-|
 |-------------------|---------------------|

|
| PM PM PM PM
| +E E E E E E E E +E E E E E E E E
 
 |-------------------|---------------------|
 |-------------------|---------------------|
 |-------------------|---------------------|
 |-(7)---7---7---7-5-|-(5)-----5---5---5-3-|
 |-(5)-x-5---5-x-5-3-|-(3)-0---3---3-0-3-1-|
 |-------------------|---------------------|

Bridge
[Bb]+H.. [Am]E +H.. [Bb]E +H.. [Am]E +H.. [Dm]E
 
 |------------3-|-(3)----------|------------3-|-(3)----------|
 |-(3)--------1-|-(1)--------3-|-(3)--------1-|-(1)--------6-|
 |-(3)--------0-|-(0)--------3-|-(3)--------0-|-(0)--------7-|
 |-(3)--------2-|-(2)--------3-|-(3)--------2-|-(2)--------7-|
 |-(1)----------|------------1-|-(1)----------|--------------|
 |--------------|--------------|--------------|--------------|

|
| +H.. E +H.. E +H.. E +H.. E
 
 |--------------|--------------|--------------|--------------|
 |--------------|--------------|--------------|--------------|
 |--------------|--------------|--------------|--------------|
 |-(3)--------2-|-(2)--------3-|-(3)--------2-|-(2)--------7-|
 |-(1)--------0-|-(0)--------1-|-(1)--------0-|-(0)--------5-|
 |--------------|--------------|--------------|--------------|

Chorus
[Dm]+E E E E E E E [C]E +E S S E E E E E [Dm]E
 
 |-------------------|---------------------|
 |-(6)-6-5---6-5-6-5-|-------------6-5---6-|
 |-(7)-7-5---5-5-5-5-|-(5)-5s7-5---5-5---7-|
 |-(7)-7-5---7-5-7-5-|-(5)-5s7-5---7-5---7-|
 |-------------------|---------------------|
 |-------------------|---------------------|

|
| PM PM PM PM
| +E E E E E E E E +E E E E E E E E
 
 |-------------------|---------------------|
 |-------------------|---------------------|
 |-------------------|---------------------|
 |-(7)---7---7---7-5-|-(5)-----5---5---5-7-|
 |-(5)-x-5---5-x-5-3-|-(3)-0---3---3-0-3-5-|
 |-------------------|---------------------|

+E E E E E E E [C]E +E S S E E E E E [Dm]E
 
 |-------------------|-----------------------|
 |-(6)-6-5---6-5-6-5-|-------------6-5---6---|
 |-(7)-7-5---5-5-5-5-|-(5)-5s7-5---5-5---7---|
 |-(7)-7-5---7-5-7-5-|-(5)-5s7-5---7-5---7---|
 |-------------------|-----------------------|
 |-------------------|-----------------------|

|
| PM PM PM PM
| +E E E E E E E E +E E E E E E E E
 
 |-------------------|-----------------------|
 |-------------------|-----------------------|
 |-------------------|-----------------------|
 |-(7)---7---7---7-5-|-(5)-----5---5---5-7---|
 |-(5)-x-5---5-x-5-3-|-(3)-0---3---3-0-3-5---|
 |-------------------|-----------------------|

2nd Verse
[Dm]+E E E E E E E [C]E +E S S E E E E E [Dm]E
 
 |-------------------|---------------------|
 |-(6)-6-5---6-5-6-5-|-------------6-5---6-|
 |-(7)-7-5---5-5-5-5-|-(5)-5s7-5---5-5---7-|
 |-(7)-7-5---7-5-7-5-|-(5)-5s7-5---7-5---7-|
 |-------------------|---------------------|
 |-------------------|---------------------|

|
| PM PM PM PM
| +E E E E E E E E +E E E E E E E E
 
 |-------------------|---------------------|
 |-------------------|---------------------|
 |-------------------|---------------------|
 |-(7)---7---7---7-5-|-(5)-----5---5---5-7-|
 |-(5)-x-5---5-x-5-3-|-(3)-0---3---3-0-3-5-|
 |-------------------|---------------------|

+E E E E E E E [C]E +E S S E E E E E [Bb]E
 
 |-------------------|-----------------------|
 |-(6)-6-5---6-5-6-5-|-------------6-5---3---|
 |-(7)-7-5---5-5-5-5-|-(5)-5s7-5---5-5---3---|
 |-(7)-7-5---7-5-7-5-|-(5)-5s7-5---7-5---3---|
 |-------------------|-----------------------|
 |-------------------|-----------------------|

|
| PM PM PM PM
| +E E E E E E E E +E E E E E E E E
 
 |-------------------|-----------------------|
 |-------------------|-----------------------|
 |-------------------|-----------------------|
 |-(7)---7---7---7-5-|-(5)-----5---5---5-3---|
 |-(5)-x-5---5-x-5-3-|-(3)-0---3---3-0-3-1---|
 |-------------------|-----------------------|

[Bb] [C] [Dm] 
[+E] [E] [E] [E] [E] [E] [E] [E] [+E] [E] [E] [E] [E] [E] [E] [E]  
 
 |--------------------|-------------------|
 |-(3)----6---6-6-----|-------6---6-5---6-|
 |-(3)----5---5-5---5-|-(5)-5-5---5-5---7-|
 |-(3)-/7-7---7-7---5-|-(5)-5-7---7-5---7-|
 |--------------------|-------------------|
 |--------------------|-------------------|

|
| PM PM PM PM
| +E E E E E E E E +E E E E E E E E
 
 |--------------------|-------------------|
 |--------------------|-------------------|
 |--------------------|-------------------|
 |-(3)----3---3---3-5-|-(5)---5---5---5-7-|
 |-(1)--0-1---1-0-1-3-|-(3)-0-3---3-0-3-5-|
 |--------------------|-------------------|

+E E E E E E E [C]E +E S S E E E E E [Bb]E
 
 |-------------------|---------------------|
 |-(6)-6-5---6-5-6-5-|-------------6-5---3-|
 |-(7)-7-5---5-5-5-5-|-(5)-5s7-5---5-5---3-|
 |-(7)-7-5---7-5-7-5-|-(5)-5s7-5---7-5---3-|
 |-------------------|-------------------1-|
 |-------------------|---------------------|

|
| PM PM PM PM
| +E E E E E E E E +E E E E E E E E
 
 |-------------------|---------------------|
 |-------------------|---------------------|
 |-------------------|---------------------|
 |-(7)---7---7---7-5-|-(5)-----5---5---5-3-|
 |-(5)-x-5---5-x-5-3-|-(3)-0---3---3-0-3-1-|
 |-------------------|---------------------|

Bridge
[Bb]+H.. [Am]E +H.. [Bb]E +H.. [Am]E +H.. [Dm]E
 
 |------------3-|-(3)----------|------------3-|-(3)----------|
 |-(3)--------1-|-(1)--------3-|-(3)--------1-|-(1)--------6-|
 |-(3)--------0-|-(0)--------3-|-(3)--------0-|-(0)--------7-|
 |-(3)--------2-|-(2)--------3-|-(3)--------2-|-(2)--------7-|
 |-(1)----------|------------1-|-(1)----------|--------------|
 |--------------|--------------|--------------|--------------|

|
| +H.. E +H.. E +H.. E +H.. E
 
 |--------------|--------------|--------------|--------------|
 |--------------|--------------|--------------|--------------|
 |--------------|--------------|--------------|--------------|
 |-(3)--------2-|-(2)--------3-|-(3)--------2-|-(2)--------7-|
 |-(1)--------0-|-(0)--------1-|-(1)--------0-|-(0)--------5-|
 |--------------|--------------|--------------|--------------|

Chorus
[Dm]+E E E E E E E [C]E +E S S E E E E E [Dm]E
 
 |-------------------|---------------------|
 |-(6)-6-5---6-5-6-5-|-------------6-5---6-|
 |-(7)-7-5---5-5-5-5-|-(5)-5s7-5---5-5---7-|
 |-(7)-7-5---7-5-7-5-|-(5)-5s7-5---7-5---7-|
 |-------------------|---------------------|
 |-------------------|---------------------|

|
| PM PM PM PM
| +E E E E E E E E +E E E E E E E E
 
 |-------------------|---------------------|
 |-------------------|---------------------|
 |-------------------|---------------------|
 |-(7)---7---7---7-5-|-(5)-----5---5---5-7-|
 |-(5)-x-5---5-x-5-3-|-(3)-0---3---3-0-3-5-|
 |-------------------|---------------------|

+E E E E E E E [C]E +E S S E E E E E [Bb]E
 
 |-------------------|-----------------------|
 |-(6)-6-5---6-5-6-5-|-------------6-5---3---|
 |-(7)-7-5---5-5-5-5-|-(5)-5s7-5---5-5---3---|
 |-(7)-7-5---7-5-7-5-|-(5)-5s7-5---7-5---3---|
 |-------------------|-----------------------|
 |-------------------|-----------------------|

|
| PM PM PM PM
| +E E E E E E E E +E E E E E E E E
 
 |-------------------|-----------------------|
 |-------------------|-----------------------|
 |-------------------|-----------------------|
 |-(7)---7---7---7-5-|-(5)-----5---5---5-3---|
 |-(5)-x-5---5-x-5-3-|-(3)-0---3---3-0-3-1---|
 |-------------------|-----------------------|

Interlude
[Bb] [C] Gt[D5]r I
W W Q S s s s S s s s S s s s
| | | | | | | | | | | |
[/] [/] [/] [/] [/] [/] [/] [/] [/] [/] [/] [/] 
+E E E E E E E E +Q H. W
 
 |--------------------|---------------|-------------------------------|
 |-(3)----6---6-6-----|---------------|-------------------------------|
 |-(3)----5---5-5---5-|-(5)\----------|-------------------------------|
 |-(3)-/7-7---7-7---5-|-(5)\----------|-------------------------------|
 |--------------------|---------------|-------------------------------|
 |--------------------|---------------|-------------------------------|

|
| PM PM
| +E E E E E E E E +Q H. E S S S S S S S Q S e
 
 |--------------------|---------------|---8-8-8-8-8-8-8-----------8---|
 |--------------------|---------------|---6-6-6-6-6-6-6-----------6---|
 |--------------------|---------------|---5-5-5-5-5-5-5-----------5---|
 |-(3)----3---3---3-5-|-(5)\----------|---7-7-7-7-7-7-7-----------7---|
 |-(1)--0-1---1-0-1-3-|-(3)\----------|-------------------------------|
 |--------------------|---------------|-------------------------------|

[D5] S s s s S s s s S s s s S s s s
| | | | | | | | | | | | | | | |
[/] [/] [/] [/] [/] [/] [/] [/] [/] [/] [/] [/] [/] [/] [/] [/] 
W
 
 |--------------------------------------|
 |--------------------------------------|
 |--------------------------------------|
 |--------------------------------------|
 |--------------------------------------|
 |--------------------------------------|

|
| +e q q Q.
 
 |-(8)---8-------10-------10------------|
 |-(6)---6--------8-------10------------|
 |-(5)---5--------7-------10------------|
 |-(7)---7--------9---------------------|
 |--------------------------------------|
 |--------------------------------------|

[D5]Gtr I[D5]
S s s s S s s s S s s s S s s s S s s s S s s s S s s s S s s s
| | | | | | | | | | | | | | | | | | | | | | | | | | | | | | | |
[/] [/] [/] [/] [/] [/] [/] [/] [/] [/] [/] [/] [/] [/] [/] [/] [/] [/] [/] [/] [/] [/] [/] [/] [/] [/] [/] [/] [/] [/] [/] [/] 
W W
 
 |---------------------------------|--------------------------------------|
 |---------------------------------|--------------------------------------|
 |---------------------------------|--------------------------------------|
 |---------------------------------|--------------------------------------|
 |---------------------------------|--------------------------------------|
 |---------------------------------|--------------------------------------|

|
| Gtr II
| E S S S S S S S Q S e +e q q Q.
 
 |-----8-8-8-8-8-8-8-----------8---|-(8)---8-------10-------10------------|
 |-----6-6-6-6-6-6-6-----------6---|-(6)---6-------10--------8------------|
 |-----5-5-5-5-5-5-5-----------5---|-(5)---5-------10--------7------------|
 |-----7-7-7-7-7-7-7-----------7---|-(7)---7-----------------9------------|
 |---------------------------------|--------------------------------------|
 |---------------------------------|--------------------------------------|

[D5]S s s s S s s s S s s s S s s s
| | | | | | | | | | | | | | | |
[/] [/] [/] [/] [/] [/] [/] [/] [/] [/] [/] [/] [/] [/] [/] [/]  
W
 
 |---------------------------------|
 |---------------------------------|
 |---------------------------------|
 |---------------------------------|
 |---------------------------------|
 |---------------------------------|

|
| E S S S S S S S Q S e
 
 |-----8-8-8-8-8-8-8-----------8---|
 |-----6-6-6-6-6-6-6-----------6---|
 |-----5-5-5-5-5-5-5-----------5---|
 |-----7-7-7-7-7-7-7-----------7---|
 |---------------------------------|
 |---------------------------------|

[D5] S s s s S s s s S s s s s s [D5] E +Q S S [E5] Q. S S [F5] E
| | | | | | | | | | | | | | | | | | | | | |
/ / / / / / / / / / / / / / / / x x / x x /
W W
 
 |------------------------------------|-------------------------|
 |------------------------------------|-------------------------|
 |------------------------------------|-------------------------|
 |------------------------------------|-------------------------|
 |------------------------------------|-------------------------|
 |------------------------------------|-------------------------|

|
| +e q q q E +Q. H E
 
 |-(8)---8-------10-------10-------10-|-(10)------12--------10--|
 |-(6)---6--------8-------10-------10-|-(10)------12--------10--|
 |-(5)---5--------7-------10-------10-|-(10)------12--------10--|
 |-(7)---7--------9-------------------|-------------------------|
 |------------------------------------|-------------------------|
 |------------------------------------|-------------------------|

Guitar Solo
[F5] +Q S S [G5] E +H [Dm] W
| | | | |
/ x x / /
Gtr I
~~~ ~~~
W Q. S S Q. S S
 
 |------------------------|----------------------------------|
 |------------------------|-20----------17h18----------------|
 |------------------------|-------------------19-------17-19-|
 |------------------------|----------------------------------|
 |------------------------|----------------------------------|
 |------------------------|----------------------------------|

|
| +Q. H +E E S S S S S S S Q S e
 
 |-(10)------12------(12)-|-----8-8-8-8--8--8--8--------8----|
 |-(10)------12------(12)-|-----6-6-6-6--6--6--6--------6----|
 |-(10)------12------(12)-|-----5-5-5-5--5--5--5--------5----|
 |------------------------|-----7-7-7-7--7--7--7--------7----|
 |------------------------|----------------------------------|
 |------------------------|----------------------------------|

[Dm] W
~~~
E S S E S S E Q.
 
 |------------------------------|
 |-17--------17-------17-18-----|
 |-----17-19----17-19-----------|
 |------------------------------|
 |------------------------------|
 |------------------------------|

|
| +e q q Q.
 
 |-(8)--8-------10-------10-----|
 |-(6)--6--------8-------10-----|
 |-(5)--5--------7-------10-----|
 |-(7)--7--------9--------------|
 |------------------------------|
 |------------------------------|

[Dm]  
 
 |---3----| |----3----| |---3---| |----3----|

[+E] [E] [E] [E] [E] [E] [E] [E] [E] [E] [E] [E]  
 
 |----------------20-------------18---------17-----------|
 |-(18)-17---18--------17---18--------17-18------17---18-|
 |-------------------------------------------------------|
 |-------------------------------------------------------|
 |-------------------------------------------------------|
 |-------------------------------------------------------|

|
| E S S S S S S S Q S e
 
 |---------8----8--8-8----8----8--8-----------------8----|
 |---------6----6--6-6----6----6--6-----------------6----|
 |---------5----5--5-5----5----5--5-----------------5----|
 |---------7----7--7-7----7----7--7-----------------7----|
 |-------------------------------------------------------|
 |-------------------------------------------------------|

[Dm] ~~~
 
 |---3----|

E E E S S Q. E E
 
 |-----------------------------------|
 |-20--17---18----------------10h13--|
 |-------------19-17-19--------------|
 |-----------------------------------|
 |-----------------------------------|
 |-----------------------------------|

|
| +e q q Q.
 
 |-(8)----8----------10---10---------|
 |-(6)----6----------10----8---------|
 |-(5)----5----------10----7---------|
 |-(7)----7----------------9---------|
 |-----------------------------------|
 |-----------------------------------|

[Dm] T T T
 
 |---3---| |---3---| |--3--|

S S S S S S S S S S S S S S S S S S S
 
 |----13p10------------13p10h13p10------------13p10h13p10-------|
 |-15-------10h==13-15-------------10h==13-15-------------10-13p|
 |--------------------------------------------------------------|
 |--------------------------------------------------------------|
 |--------------------------------------------------------------|
 |--------------------------------------------------------------|

|
| E S S S S S S S Q S e
 
 |--------8----8-----8--8--8--8--8----------------------8-------|
 |--------6----6-----6--6--6--6--6----------------------6-------|
 |--------5----5-----5--5--5--5--5----------------------5-------|
 |--------7----7-----7--7--7--7--7----------------------7-------|
 |--------------------------------------------------------------|
 |--------------------------------------------------------------|

[Dm] T T T
 
 |--3--| |--3--| |--3--|

S S S S S S S S S S S S S S S S S S S
 
 |-----------13p10----------13-17p13p10----------13p10-------|
 |-10--13-15-------10h13-15-------------13p10-15-------10h13-|
 |-----------------------------------------------------------|
 |-----------------------------------------------------------|
 |-----------------------------------------------------------|
 |-----------------------------------------------------------|

|
| +e q q q E
 
 |-(8)-----8-------------10----------10-------------10-------|
 |-(6)-----6--------------8----------10-------------10-------|
 |-(5)-----5--------------7----------10-------------10-------|
 |-(7)-----7--------------9----------------------------------|
 |-----------------------------------------------------------|
 |-----------------------------------------------------------|

[Dm] T ~~~ [Em] ~~~~~[Dm/F]
S S S S E. S S S E Q
 
 |--15-----10h13p10--------10h13p10----------|
 |------13--------------13----------13b15----|
 |-------------------------------------------|
 |-------------------------------------------|
 |-------------------------------------------|
 |-------------------------------------------|

|
| +Q. H E
 
 |-(10)--------------12-------------------10-|
 |-(10)--------------12-------------------10-|
 |-(10)--------------12-------------------10-|
 |-------------------------------------------|
 |-------------------------------------------|
 |-------------------------------------------|

[Em/G] ~~[Dm]
S S S S S S S S S S S S E E
 
 |--10----------------------------------------|
 |------10-13----10-------------------------6-|
 |------------12----12----10----------------7-|
 |---------------------12----12-10----10-12-7-|
 |---------------------------------12---------|
 |--------------------------------------------|

|
| +Q. H E
 
 |-(10)----------------12---------------------|
 |-(10)----------------12---------------------|
 |-(10)----------------12---------------------|
 |------------------------------------------7-|
 |------------------------------------------5-|
 |--------------------------------------------|

3rd Verse
[Dm]+E E E E E E E [C]E +E S S E E E E E [Dm]E
 
 |-------------------|---------------------|
 |-(6)-6-5---6-5-6-5-|-------------6-5---6-|
 |-(7)-7-5---5-5-5-5-|-(5)-5s7-5---5-5---7-|
 |-(7)-7-5---7-5-7-5-|-(5)-5s7-5---7-5---7-|
 |-------------------|---------------------|
 |-------------------|---------------------|

|
| PM PM PM PM
| +E E E E E E E E +E E E E E E E E
 
 |-------------------|---------------------|
 |-------------------|---------------------|
 |-------------------|---------------------|
 |-(7)---7---7---7-5-|-(5)-----5---5---5-7-|
 |-(5)-x-5---5-x-5-3-|-(3)-0---3---3-0-3-5-|
 |-------------------|---------------------|

+E E E E E E E [C]E +E S S E E E E E [Bb]E
 
 |-------------------|-----------------------|
 |-(6)-6-5---6-5-6-5-|-------------6-5---3---|
 |-(7)-7-5---5-5-5-5-|-(5)-5s7-5---5-5---3---|
 |-(7)-7-5---7-5-7-5-|-(5)-5s7-5---7-5---3---|
 |-------------------|-----------------------|
 |-------------------|-----------------------|

|
| PM PM PM PM
| +E E E E E E E E +E E E E E E E E
 
 |-------------------|-----------------------|
 |-------------------|-----------------------|
 |-------------------|-----------------------|
 |-(7)---7---7---7-5-|-(5)-----5---5---5-3---|
 |-(5)-x-5---5-x-5-3-|-(3)-0---3---3-0-3-1---|
 |-------------------|-----------------------|

[Bb] [C] [Dm] 
[+E] [E] [E] [E] [E] [E] [E] [E] [+E] [E] [E] [E] [E] [E] [E] [E]  
 
 |--------------------|-------------------|
 |-(3)----6---6-6-----|-------6---6-5---6-|
 |-(3)----5---5-5---5-|-(5)-5-5---5-5---7-|
 |-(3)-/7-7---7-7---5-|-(5)-5-7---7-5---7-|
 |--------------------|-------------------|
 |--------------------|-------------------|

|
| PM PM PM PM
| +E E E E E E E E +E E E E E E E E
 
 |--------------------|-------------------|
 |--------------------|-------------------|
 |--------------------|-------------------|
 |-(3)----3---3---3-5-|-(5)---5---5---5-7-|
 |-(1)--0-1---1-0-1-3-|-(3)-0-3---3-0-3-5-|
 |--------------------|-------------------|

+E E E E E E E [C]E +E S S E E E E E [Bb]E
 
 |-------------------|---------------------|
 |-(6)-6-5---6-5-6-5-|-------------6-5---3-|
 |-(7)-7-5---5-5-5-5-|-(5)-5s7-5---5-5---3-|
 |-(7)-7-5---7-5-7-5-|-(5)-5s7-5---7-5---3-|
 |-------------------|-------------------1-|
 |-------------------|---------------------|

|
| PM PM PM PM
| +E E E E E E E E +E E E E E E E E
 
 |-------------------|---------------------|
 |-------------------|---------------------|
 |-------------------|---------------------|
 |-(7)---7---7---7-5-|-(5)-----5---5---5-3-|
 |-(5)-x-5---5-x-5-3-|-(3)-0---3---3-0-3-1-|
 |-------------------|---------------------|

Bridge
[Bb]+H.. [Am]E +H.. [Bb]E +H.. [Am]E +H.. [Dm]E
 
 |------------3-|-(3)----------|------------3-|-(3)----------|
 |-(3)--------1-|-(1)--------3-|-(3)--------1-|-(1)--------6-|
 |-(3)--------0-|-(0)--------3-|-(3)--------0-|-(0)--------7-|
 |-(3)--------2-|-(2)--------3-|-(3)--------2-|-(2)--------7-|
 |-(1)----------|------------1-|-(1)----------|--------------|
 |--------------|--------------|--------------|--------------|

|
| +H.. E +H.. E +H.. E +H.. E
 
 |--------------|--------------|--------------|--------------|
 |--------------|--------------|--------------|--------------|
 |--------------|--------------|--------------|--------------|
 |-(3)--------2-|-(2)--------3-|-(3)--------2-|-(2)--------7-|
 |-(1)--------0-|-(0)--------1-|-(1)--------0-|-(0)--------5-|
 |--------------|--------------|--------------|--------------|

Chorus
[Dm]+E E E E E E E [C]E +E S S E E E E E [Dm]E
 
 |-------------------|---------------------|
 |-(6)-6-5---6-5-6-5-|-------------6-5---6-|
 |-(7)-7-5---5-5-5-5-|-(5)-5s7-5---5-5---7-|
 |-(7)-7-5---7-5-7-5-|-(5)-5s7-5---7-5---7-|
 |-------------------|---------------------|
 |-------------------|---------------------|

|
| PM PM PM PM
| +E E E E E E E E +E E E E E E E E
 
 |-------------------|---------------------|
 |-------------------|---------------------|
 |-------------------|---------------------|
 |-(7)---7---7---7-5-|-(5)-----5---5---5-7-|
 |-(5)-x-5---5-x-5-3-|-(3)-0---3---3-0-3-5-|
 |-------------------|---------------------|

+E E E E E E E [C]E +E S S E E E E E [Bb]E
 
 |-------------------|-----------------------|
 |-(6)-6-5---6-5-6-5-|-------------6-5---3---|
 |-(7)-7-5---5-5-5-5-|-(5)-5s7-5---5-5---3---|
 |-(7)-7-5---7-5-7-5-|-(5)-5s7-5---7-5---3---|
 |-------------------|-------------------1---|
 |-------------------|-----------------------|

|
| PM PM PM PM
| +E E E E E E E E +E E E E E E E E
 
 |-------------------|-----------------------|
 |-------------------|-----------------------|
 |-------------------|-----------------------|
 |-(7)---7---7---7-5-|-(5)-----5---5---5-3---|
 |-(5)-x-5---5-x-5-3-|-(3)-0---3---3-0-3-1---|
 |-------------------|-----------------------|

Bridge
[Bb]+H.. [Am]E +H.. [Bb]E +H.. [Am]E +H.. [Dm]E
 
 |------------3-|-(3)----------|------------3-|-(3)----------|
 |-(3)--------1-|-(1)--------3-|-(3)--------1-|-(1)--------6-|
 |-(3)--------0-|-(0)--------3-|-(3)--------0-|-(0)--------7-|
 |-(3)--------2-|-(2)--------3-|-(3)--------2-|-(2)--------7-|
 |-(1)----------|------------1-|-(1)----------|--------------|
 |--------------|--------------|--------------|--------------|

|
| +H.. E +H.. E +H.. E +H.. E
 
 |--------------|--------------|--------------|--------------|
 |--------------|--------------|--------------|--------------|
 |--------------|--------------|--------------|--------------|
 |-(3)--------2-|-(2)--------3-|-(3)--------2-|-(2)--------7-|
 |-(1)--------0-|-(0)--------1-|-(1)--------0-|-(0)--------5-|
 |--------------|--------------|--------------|--------------|

Chorus
[Dm]+E E E E E E E [C]E +E S S E E E E E [Dm]E
 
 |-------------------|---------------------|
 |-(6)-6-5---6-5-6-5-|-------------6-5---6-|
 |-(7)-7-5---5-5-5-5-|-(5)-5s7-5---5-5---7-|
 |-(7)-7-5---7-5-7-5-|-(5)-5s7-5---7-5---7-|
 |-------------------|---------------------|
 |-------------------|---------------------|

|
| PM PM PM PM
| +E E E E E E E E +E E E E E E E E
 
 |-------------------|---------------------|
 |-------------------|---------------------|
 |-------------------|---------------------|
 |-(7)---7---7---7-5-|-(5)-----5---5---5-7-|
 |-(5)-x-5---5-x-5-3-|-(3)-0---3---3-0-3-5-|
 |-------------------|---------------------|

+E E E E E E E [C]E +E S S E E E E E [Bb]E
 
 |-------------------|-----------------------|
 |-(6)-6-5---6-5-6-5-|-------------6-5---3---|
 |-(7)-7-5---5-5-5-5-|-(5)-5s7-5---5-5---3---|
 |-(7)-7-5---7-5-7-5-|-(5)-5s7-5---7-5---3---|
 |-------------------|-----------------------|
 |-------------------|-----------------------|

|
| PM PM PM PM
| +E E E E E E E E +E E E E E E E E
 
 |-------------------|-----------------------|
 |-------------------|-----------------------|
 |-------------------|-----------------------|
 |-(7)---7---7---7-5-|-(5)-----5---5---5-3---|
 |-(5)-x-5---5-x-5-3-|-(3)-0---3---3-0-3-1---|
 |-------------------|-----------------------|

Interlude
Bb C N.C. D5
Gtr I
W W Q S s s s S s s s S s s s
| | | | | | | | | | | |
[/] [/] [/] [/] [/] [/] [/] [/] [/] [/] [/] [/] 
+E E E E E E E E +Q H. W
 
 |--------------------|---------------|-------------------------------|
 |-(3)----6---6-6-----|---------------|-------------------------------|
 |-(3)----5---5-5---5-|-(5)\----------|-------------------------------|
 |-(3)-/7-7---7-7---5-|-(5)\----------|-------------------------------|
 |--------------------|---------------|-------------------------------|
 |--------------------|---------------|-------------------------------|

|
| PM PM
| +E E E E E E E E +Q H. E S S S S S S S Q S e
 
 |--------------------|---------------|---8-8-8-8-8-8-8-----------8---|
 |--------------------|---------------|---6-6-6-6-6-6-6-----------6---|
 |--------------------|---------------|---5-5-5-5-5-5-5-----------5---|
 |-(3)----3---3---3-5-|-(5)\----------|---7-7-7-7-7-7-7-----------7---|
 |-(1)--0-1---1-0-1-3-|-(3)\----------|-------------------------------|
 |--------------------|---------------|-------------------------------|

[D5] S s s s S s s s S s s s S s s s
| | | | | | | | | | | | | | | |
[/] [/] [/] [/] [/] [/] [/] [/] [/] [/] [/] [/] [/] [/] [/] [/] 
W
 
 |--------------------------------------|
 |--------------------------------------|
 |--------------------------------------|
 |--------------------------------------|
 |--------------------------------------|
 |--------------------------------------|

|
| +e q q Q.
 
 |-(8)---8-------10-------10------------|
 |-(6)---6--------8-------10------------|
 |-(5)---5--------7-------10------------|
 |-(7)---7--------9---------------------|
 |--------------------------------------|
 |--------------------------------------|

[D5]S s s s S s s s S s s s S s s s [D5] S s s s S s s s S s s s S s s s
| | | | | | | | | | | | | | | | | | | | | | | | | | | | | | | |
[/] [/] [/] [/] [/] [/] [/] [/] [/] [/] [/] [/] [/] [/] [/] [/] [/] [/] [/] [/] [/] [/] [/] [/] [/] [/] [/] [/] [/] [/] [/] [/] 
W W
 
 |---------------------------------|--------------------------------------|
 |---------------------------------|--------------------------------------|
 |---------------------------------|--------------------------------------|
 |---------------------------------|--------------------------------------|
 |---------------------------------|--------------------------------------|
 |---------------------------------|--------------------------------------|

|
| E S S S S S S S Q S e +e q q Q.
 
 |-----8-8-8-8-8-8-8-----------8---|-(8)---8-------10-------10------------|
 |-----6-6-6-6-6-6-6-----------6---|-(6)---6-------10--------8------------|
 |-----5-5-5-5-5-5-5-----------5---|-(5)---5-------10--------7------------|
 |-----7-7-7-7-7-7-7-----------7---|-(7)---7-----------------9------------|
 |---------------------------------|--------------------------------------|
 |---------------------------------|--------------------------------------|

[D5]S s s s S s s s S s s s S s s s
| | | | | | | | | | | | | | | |
[/] [/] [/] [/] [/] [/] [/] [/] [/] [/] [/] [/] [/] [/] [/] [/]  
W
 
 |---------------------------------|
 |---------------------------------|
 |---------------------------------|
 |---------------------------------|
 |---------------------------------|
 |---------------------------------|

|
| E S S S S S S S Q S e
 
 |-----8-8-8-8-8-8-8-----------8---|
 |-----6-6-6-6-6-6-6-----------6---|
 |-----5-5-5-5-5-5-5-----------5---|
 |-----7-7-7-7-7-7-7-----------7---|
 |---------------------------------|
 |---------------------------------|

[D5] S s s s S s s s S s s s s s [D5] E +Q S S [E5] Q. S S [F5] E
| | | | | | | | | | | | | | | | | | | | | |
/ / / / / / / / / / / / / / / / x x / x x /
W W
 
 |------------------------------------|-------------------------|
 |------------------------------------|-------------------------|
 |------------------------------------|-------------------------|
 |------------------------------------|-------------------------|
 |------------------------------------|-------------------------|
 |------------------------------------|-------------------------|

|
| +e q q q E +Q. H E
 
 |-(8)---8-------10-------10-------10-|-(10)------12--------10--|
 |-(6)---6--------8-------10-------10-|-(10)------12--------10--|
 |-(5)---5--------7-------10-------10-|-(10)------12--------10--|
 |-(7)---7--------9-------------------|-------------------------|
 |------------------------------------|-------------------------|
 |------------------------------------|-------------------------|

Outro Solo
[F5] +Q S S [G5] E +H [Dm]W [Dm] W
| | | | |
/ x x / /
Gtr I
~~~
W W +W
 
 |------------------------|------------------------|------------------|
 |------------------------|------------------------|------------------|
 |------------------------|-7----------------------|-(7)--------------|
 |------------------------|------------------------|------------------|
 |------------------------|------------------------|------------------|
 |------------------------|------------------------|------------------|

|
| +Q. H +E E S S S S S S S Q S e +e q q Q.
 
 |-(10)------12------(12)-|---8-8-8-8-8-8-8------8-|-(8)-8--10--10----|
 |-(10)------12------(12)-|---6-6-6-6-6-6-6------6-|-(6)-6---8--10----|
 |-(10)------12------(12)-|---5-5-5-5-5-5-5------5-|-(5)-5---7--10----|
 |------------------------|---7-7-7-7-7-7-7------7-|-(7)-7---9--------|
 |------------------------|------------------------|------------------|
 |------------------------|------------------------|------------------|

[Dm] >[Dm]
~~~~~~~~~~~~~~~~~~~~~~~~~~~~~~
+W +W
 
 |--------------------------|------------------|
 |--------------------------|------------------|
 |-(7)----------------------|-(7)--------------|
 |--------------------------|------------------|
 |--------------------------|------------------|
 |--------------------------|------------------|

|
| E S S S S S S S Q S e +e q q Q.
 
 |-----8-8-8-8-8-8-8------8-|-(8)-8--10--10----|
 |-----6-6-6-6-6-6-6------6-|-(6)-6--10---8----|
 |-----5-5-5-5-5-5-5------5-|-(5)-5--10---7----|
 |-----7-7-7-7-7-7-7------7-|-(7)-7-------9----|
 |--------------------------|------------------|
 |--------------------------|------------------|

[Dm] \1/ \1/ \1/ \1/[Dm]
~~~~~~~~~~
E E. +E. +E. +E. +E +H.. S S
 
 |--------------------------------------|-----------------------|
 |--------------------------------------|-----------------------|
 |---7-------(7)------(7)----(7)----(7)-|-(7)-------------10h12-|
 |--------------------------------------|-----------------------|
 |--------------------------------------|-----------------------|
 |--------------------------------------|-----------------------|

|
| E S S S S S S S Q S e +e q q q E
 
 |---8---8-8--8---8-8--8-------------8--|-(8)--8--10--10--10----|
 |---6---6-6--6---6-6--6-------------6--|-(6)--6---8--10--10----|
 |---5---5-5--5---5-5--5-------------5--|-(5)--5---7--10--10----|
 |---7---7-7--7---7-7--7-------------7--|-(7)--7---9------------|
 |--------------------------------------|-----------------------|
 |--------------------------------------|-----------------------|

[Dm] [Em] [Dm/F]  
 
 |--3---| |--3--| |--3--|

S S S S S S E Q S S S E E
 
 |-------------------------------------------|
 |---------------------10-13--10h13p10----10-|
 |--14p=12p10-14p12p10-----------------13----|
 |-------------------------------------------|
 |-------------------------------------------|
 |-------------------------------------------|

|
| +Q. H E
 
 |-(10)-------------------12--------------10-|
 |-(10)-------------------12--------------10-|
 |-(10)-------------------12--------------10-|
 |-------------------------------------------|
 |-------------------------------------------|
 |-------------------------------------------|

[Em/G] ~~~~
+E S S S S S S S S S S S S E
 
 |-------------------------------------------13--|
 |-(10)-13h15p13----13h15p13----13h15p13---------|
 |---------------14----------14----------14------|
 |-----------------------------------------------|
 |-----------------------------------------------|
 |-----------------------------------------------|

|
| +Q. H +E
 
 |-(10)-------------12----------------------(12)-|
 |-(10)-------------12----------------------(12)-|
 |-(10)-------------12----------------------(12)-|
 |-----------------------------------------------|
 |-----------------------------------------------|
 |-----------------------------------------------|

[Dm] ~~~~ ~~~~
+E S S S S S S S S Q S S
 
 |-(13)-10-13----10--------------------------|
 |------------13----10-13----10--------------|
 |------------------------12----[12]---------|
 |-------------------------------------12p10-|
 |-------------------------------------------|
 |-------------------------------------------|

|
| E S S S S S S S Q S e
 
 |-------8--8--8--8--8--8--8------------8----|
 |-------6--6--6--6--6--6--6------------6----|
 |-------5--5--5--5--5--5--5------------5----|
 |-------7--7--7--7--7--7--7------------7----|
 |-------------------------------------------|
 |-------------------------------------------|

[Dm] ~~~~
S S S S E Q +E S S S S
 
 |----------------------------------------|
 |----------------------------------------|
 |----------------------------------------|
 |-------------------------------------10-|
 |-12p=10----------[10]--(10)----10-12----|
 |--------13p10-13------------13----------|

|
| +e q q Q.
 
 |-(8)-----8--------10----10--------------|
 |-(6)-----6---------8----10--------------|
 |-(5)-----5---------7----10--------------|
 |-(7)-----7---------9--------------------|
 |----------------------------------------|
 |----------------------------------------|

[Dm] ~~~~
 
 |---3---| |--3--|

S S T T S T T T E.. T T S S S S S S S S
 
 |---------------------------------------------15-12h13p==12-10h12p10-|
 |----------------------10h13---------10h13h15------------------------|
 |----10-13p12p10----10-----------------------------------------------|
 |-12-------------12--------------------------------------------------|
 |--------------------------------------------------------------------|
 |--------------------------------------------------------------------|

|
| E S S S S S S S Q S e
 
 |--------8-----8--8-----8------8-8-8-------------------------8-------|
 |--------6-----6--6-----6------6-6-6-------------------------6-------|
 |--------5-----5--5-----5------5-5-5-------------------------5-------|
 |--------7-----7--7-----7------7-7-7-------------------------7-------|
 |--------------------------------------------------------------------|
 |--------------------------------------------------------------------|

[Dm] ~~~~~~~~~~~~
 
 |--3---| |--3--| |--3--|

S S S S S S S S S S Q +S S s. s.
 
 |--------------------------------------------------------|
 |-15p=13p12-13p12p10-------------------------------------|
 |--------------------13p12p10----10-----(10)\--------9---|
 |-----------------------------12----------------/12------|
 |--------------------------------------------------------|
 |--------------------------------------------------------|

|
| +e q q Q.
 
 |-(8)--------8----------------10----10-------------------|
 |-(6)--------6----------------10-----8-------------------|
 |-(5)--------5----------------10-----7-------------------|
 |-(7)--------7-----------------------9-------------------|
 |--------------------------------------------------------|
 |--------------------------------------------------------|

[Dm] ~~~~
 
 |--3---| |----3----| |--3---|

E E E E E E E E E +Q
 
 |--------------------------------------------------|
 |--------------------------------------------------|

Important: The song above is NOT stored on the Chordie server. The original song is hosted at www.guitaretab.com. Chordie works as a search engine and provides on-the-fly formatting. Chordie does not index songs against artists'/composers' will. To remove this song please click here.

Text color:
Chord color:
Chord grids: 
Font size:    
Page size: 

Am Bb C D5 Dm Dm/F E E5 Em F5 G5
Rate #2 of 4 versions

Login - add to songbook

SHARE PAGE  




You need to log in to post comments