Guitar Tabs, Chords and Lyrics
Server problems seems to be fixed. Chordie has been experiencing problems with songs disappearing. These issues now seems to be fixed, but still verifying the fix. If you find anything strange, please email admin@chordie.com.


And the Bands Played On  Saxon

As recorded by Saxon
(From the 1981 Album DENIM AND LEATHER)
Transcribed by Mark Hunter
Words by Biff Bryford Music by Steve Dawson, Biff Bryford, Graham Oliver, Paul Quinn and Pete Gill
Arranged by Mark Hunter
[E5]x 7 9 9 x x
[D5]x 5 7 7 x x
[C5]x 3 5 5 x x
[G5]x 10 12 x x x
[D/F#]x 9 12 x x x
Gtr I (Eb Ab Db Gb Bb Eb) - 'Graham Oliver'
Gtr II (Eb Ab Db Gb Bb Eb) - 'Paul Quinn'
Gtr III (Eb Ab Db Gb Bb Eb) - 'Paul Quinn'
Intro
Upbeat Hard Rock Q=135
[D5] [E5]  
[2/4] Gtr I
~~~~~
 
 |----3-----| |----3-----|

E +E +Q E +E E E +E E
 
 |-----------------------|-----------------------------|
 |-15-(15)b17====(15)r---|-15b17r(15)-12---------------|
 |-----------------------|---------------14b16r(14)-12-|
 |-----------------------|-----------------------------|
 |-----------------------|-----------------------------|
 |-----------------------|-----------------------------|

|
| Gtr II
 
 | PM------|
 | |--------3---------|

| Q Q Q H
 
 |-----------------------|-----------------------------|
 |-----------------------|-----------------------------|
 |-----------------------|-----------------------------|
 |--7----------9-------9-|--9--------------------------|
 |--5----------7-------7-|--7--------------------------|
 |-----------------------|-----------------------------|

[C5] [D5] ~~~~~~~~~~~~~~~~~~
E +E +E +E +Q E. +S
 
 |-15-(15)b17---(15)---(15)-|-(15)r--17b19r(17)-|
 |--------------------------|-------------------|
 |--------------------------|-------------------|
 |--------------------------|-------------------|
 |--------------------------|-------------------|
 |--------------------------|-------------------|

|
| PM-----|
 
 | |-------3--------|

| Q Q Q H
 
 |--------------------------|-------------------|
 |--------------------------|-------------------|
 |--------------------------|-------------------|
 |--5---------7------7------|---7---------------|
 |--3---------5------5------|---5---------------|
 |--------------------------|-------------------|

[D5] [E5] ~~~~~ ~~~~~ ~~~~~
 
 |--3--| |--3--| |----------------3----------------|

[E] [E] [E] [E] [E] [E] [E] [+E] [E] [+E] [E] [+E]  
 
 |-15-------------15-|-20b22==(20)r-20b22==(20)r-20b22==(20)r-|
 |----17-15----------|----------------------------------------|
 |----------16-18----|----------------------------------------|
 |-------------------|----------------------------------------|
 |-------------------|----------------------------------------|
 |-------------------|----------------------------------------|

|
| PM---|
 
 | |-----3-----|

| Q Q Q H
 
 |-------------------|----------------------------------------|
 |-------------------|----------------------------------------|
 |-------------------|----------------------------------------|
 |--7-----9-----9----|--9-------------------------------------|
 |--5-----7-----7----|--7-------------------------------------|
 |-------------------|----------------------------------------|

~[C5]~~~~~~~~~~~~~~~~~~ [D5] ~~~~~~~
 
 |--3--| |--3---|

E +E +Q E E E E E +E
 
 |-20b22==(20)-(20)r--|-19-17-16-15---------|
 |--------------------|-------------17-(17)-|
 |--------------------|---------------------|
 |--------------------|---------------------|
 |--------------------|---------------------|
 |--------------------|---------------------|

|
| H H
 
 |--------------------|---------------------|
 |--------------------|---------------------|
 |--------------------|---------------------|
 |--5-----------------|--7------------------|
 |--3-----------------|--5------------------|
 |--------------------|---------------------|

[D5] ~~~~~~~~[E5] ~~~
 
 |----3----| |--3--| |--3--|

+E +E E E E E E E E S E.
 
 |------------------------|-----------------|
 |-(17)-(17)-/12-15-12----|-----------------|
 |---------------------15-|-14p12----12h14--|
 |------------------------|-------14--------|
 |------------------------|-----------------|
 |------------------------|-----------------|

|
| PM---|
 
 | |-------3-------|

| Q Q Q H
 
 |------------------------|-----------------|
 |------------------------|-----------------|
 |------------------------|-----------------|
 |---7---------9-----9----|--9--------------|
 |---5---------7-----7----|--7--------------|
 |------------------------|-----------------|

[C5] [D5] ~~~~ ~~ ~~~~
 
 |----3----| |--3--| |-3--|

+E +E +E S S S E S S S E Q
 
 |----------------------------|---------------|
 |----------------------------|---------------|
 |-(14)-(14)-(14)-12h14p12p11-|-12p11p9----9--|
 |----------------------------|---------11----|
 |----------------------------|---------------|
 |----------------------------|---------------|

|
 
 | PM-------|
 | |---------3---------|

| Q Q Q H
 
 |----------------------------|---------------|
 |----------------------------|---------------|
 |----------------------------|---------------|
 |---5---------7---------7----|--7------------|
 |---3---------5---------5----|--5------------|
 |----------------------------|---------------|

[D5] ~~~ [E5] ~~ [C5] ~~~~~[D5]~~~~
 
 |--3---| |--3--| |-3--| |-3-|

+E E +E +E E +E E. S +E E E E E E Q +H
 
 |----------------------|--------------|-----------|--------|
 |----------------------|--------------|------8----|--------|
 |-(9)------------------|--------------|----7---9--|-(9)----|
 |-----/9-(9)-(9)-8-(8)-|-7--5-(5)-----|-/9--------|--------|
 |----------------------|----------7-5-|-----------|--------|
 |----------------------|--------------|-----------|--------|

|
| PM-----|
 
 | |------3------|

| Q Q Q H H H
 
 |----------------------|--------------|-----------|--------|
 |----------------------|--------------|-----------|--------|
 |----------------------|--------------|-----------|--------|
 |--7------9------9-----|-9------------|--5--------|--7-----|
 |--5------7------7-----|-7------------|--3--------|--5-----|
 |----------------------|--------------|-----------|--------|

Verse 1
[E5] ~~~~~~~~~~~~~~~~~~~~~~~~[D5]
 
 |---3---| |--3--| |---3---| |----3----|

e +E E E E E e +E E +E +E +E +H Q Q
 
 ||----------------------|---------------------------|---------|-------|
 ||o--8--(8)--8----------|---------------------------|---------|-------|
 ||--------------9p=7----|--7--(7)--9--(9)--(9)--(9)-|--(9)----|-------|
 ||--------------------9-|---------------------------|---------|-9--7--|
 ||o---------------------|---------------------------|---------|-7--5--|
 ||----------------------|---------------------------|---------|-------|

|
| ~~~~~~~~~~~~~~~~~~~~~~~~
 
 | |---3---| |--3--| |---3---| |----3----|

| e +E E E E E e +E E +E +E +E +H Q Q
 
 ||--15-(15)-15----------|---------------------------|---------|-------|
 ||o------------17p15----|-15-(15)-17-(17)-(17)-(17)-|-(17)----|-------|
 ||-------------------16-|---------------------------|---------|-------|
 ||----------------------|---------------------------|---------|-9--7--|
 ||o---------------------|---------------------------|---------|-7--5--|
 ||----------------------|---------------------------|---------|-------|

[C5]H +H [D5]H [G5]+H [D/F#] 3x
 
 |------|--------|------|-----------||
 |------|--------|------|----------o||
 |------|--------|------|-----------||
 |-5----|-(5)----|-7----|-(7)-------||
 |-3----|-(3)----|-5----|-(5)------o||
 |------|--------|------|-----------||

|
| H +H H Q Q 3x
 
 |------|--------|------|-----------||
 |------|--------|------|----------o||
 |------|--------|------|-----------||
 |-5----|-(5)----|-7----|-12---12---||
 |-3----|-(3)----|-5----|-10----9--o||
 |------|--------|------|-----------||

[E5] ~~~~~~~~~~~~~~~~~~~~~~~~[D5]
 
 |---3---| |--3--| |---3---| |----3----|

e +E E E E E e +E E +E +E +E +H Q Q
 
 |---------------------|---------------------------|---------|-------|
 |--8--(8)--8----------|---------------------------|---------|-------|
 |-------------9p=7----|--7--(7)--9--(9)--(9)--(9)-|--(9)----|-------|
 |-------------------9-|---------------------------|---------|-9--7--|
 |---------------------|---------------------------|---------|-7--5--|
 |---------------------|---------------------------|---------|-------|

|
| ~~~~~~~~~~~~~~~~~~~~~~~~
 
 | |---3---| |--3--| |---3---| |----3----|

| e +E E E E E e +E E +E +E +E +H Q Q
 
 |-15-(15)-15----------|---------------------------|---------|-------|
 |------------17p15----|-15-(15)-17-(17)-(17)-(17)-|-(17)----|-------|
 |------------------16-|---------------------------|---------|-------|
 |---------------------|---------------------------|---------|-9--7--|
 |---------------------|---------------------------|---------|-7--5--|
 |---------------------|---------------------------|---------|-------|

[C5] ~~~~~~~~ [D5]~~~~~~~ ~
 
 |-3--| |-3--| |-3--| |-3--|

Q +E E E Q +E E E Q +E E E E E E Q
 
 |------------|--------------|------------|------------|
 |--------7-8-|----------7-8-|--------7-8-|-10--7-8----|
 |------------|--9---(9)-----|-9--(9)-----|---------9--|
 |-5--(5)-----|--------------|------------|------------|
 |-3--(3)-----|--------------|------------|------------|
 |------------|--------------|------------|------------|

|
| ~~~~~~~~ ~~~~~~~ ~
 
 | |-3--| |-3--| |-3--| |-3--|

| Q +E E E Q +E E E Q +E E E E E E Q
 
 |------------|--------------|------------|------------|
 |------------|--------------|------------|------------|
 |------------|--------------|------------|------------|
 |-5--(5)-4-5-|----------4-5-|--------4-5-|--7--4-5----|
 |-3--(3)-----|--7---(7)-----|-7--(7)-----|---------7--|
 |------------|--------------|------------|------------|

|
| Gtr III
| H +H H +H
 
 |------------|--------------|------------|------------|
 |------------|--------------|------------|------------|
 |------------|--------------|------------|------------|
 |-5----------|-(5)----------|-7----------|-(7)--------|
 |-3----------|-(3)----------|-5----------|-(5)--------|
 |------------|--------------|------------|------------|

Chorus
[D5] [E5] ~~~~~
 
 |----3-----| |----3-----|

E +E +Q E +E E E +E E
 
 |-----------------------|-----------------------------|
 |-15-(15)b17====(15)r---|-15b17r(15)-12---------------|
 |-----------------------|---------------14b16r(14)-12-|
 |-----------------------|-----------------------------|
 |-----------------------|-----------------------------|
 |-----------------------|-----------------------------|

|
 
 | PM------|
 | |--------3---------|

| Q Q Q H
 
 |-----------------------|-----------------------------|
 |-----------------------|-----------------------------|
 |-----------------------|-----------------------------|
 |--7----------9-------9-|--9--------------------------|
 |--5----------7-------7-|--7--------------------------|
 |-----------------------|-----------------------------|

[C5] [D5] ~~~~~~~~~~~~~~~~~~
E +E +E +E +Q E. +S
 
 |-15-(15)b17---(15)---(15)-|-(15)r--17b19.5r(17)-|
 |--------------------------|---------------------|
 |--------------------------|---------------------|
 |--------------------------|---------------------|
 |--------------------------|---------------------|
 |--------------------------|---------------------|

|
| PM-----|
 
 | |-------3--------|

| Q Q Q H
 
 |--------------------------|---------------------|
 |--------------------------|---------------------|
 |--------------------------|---------------------|
 |--5---------7------7------|---7-----------------|
 |--3---------5------5------|---5-----------------|
 |--------------------------|---------------------|

[D5] [E5] ~~~~~ ~~~~~ ~~~~~
 
 |--3--| |--3--| |----------------3----------------|

[E] [E] [E] [E] [E] [E] [E] [+E] [E] [+E] [E] [+E]  
 
 |-15-------------15-|-20b22==(20)r-20b22==(20)r-20b22==(20)r-|
 |----17-15----------|----------------------------------------|
 |----------16-18----|----------------------------------------|
 |-------------------|----------------------------------------|
 |-------------------|----------------------------------------|
 |-------------------|----------------------------------------|

|
| PM---|
 
 | |-----3-----|

| Q Q Q H
 
 |-------------------|----------------------------------------|
 |-------------------|----------------------------------------|
 |-------------------|----------------------------------------|
 |--7-----9-----9----|--9-------------------------------------|
 |--5-----7-----7----|--7-------------------------------------|
 |-------------------|----------------------------------------|

~[C5]~~~~~~~~~~~~~~~~~~ [D5] ~~~~~~~
 
 |--3---| |--3---|

E +E +Q E E E E E +E
 
 |-20b22==(20)-(20)r--|-19-------------------|
 |--------------------|----17-/20-19p17-(17)-|
 |--------------------|----------------------|
 |--------------------|----------------------|
 |--------------------|----------------------|
 |--------------------|----------------------|

|
| H H
 
 |--------------------|----------------------|
 |--------------------|----------------------|
 |--------------------|----------------------|
 |--5-----------------|--7-------------------|
 |--3-----------------|--5-------------------|
 |--------------------|----------------------|

[D5] ~~~~~~~~[E5] ~~~~
 
 |----3----| |--3--| |--3--|

+E +E E E E E E E E S E.
 
 |---------------12-------|-----------------|
 |-(17)-(17)-/12----12----|-----------------|
 |---------------------15-|-14p12----12h14--|
 |------------------------|-------14--------|
 |------------------------|-----------------|
 |------------------------|-----------------|

|
| PM---|
 
 | |-------3-------|

| Q Q Q H
 
 |------------------------|-----------------|
 |------------------------|-----------------|
 |------------------------|-----------------|
 |---7---------9-----9----|--9--------------|
 |---5---------7-----7----|--7--------------|
 |------------------------|-----------------|

~[C5]~~~~~~~~[D5]~~~~~ ~~ ~~~~
 
 |---3----| |--3--| |-3--|

E +E +E S S S E S S S E Q
 
 |--------------------------|---------------|
 |--------------------------|---------------|
 |-14-(14)-(14)-12h14p12p11-|-12p11p9----9--|
 |--------------------------|---------11----|
 |--------------------------|---------------|
 |--------------------------|---------------|

|
 
 | PM-------|
 | |--------3---------|

| Q Q Q H
 
 |--------------------------|---------------|
 |--------------------------|---------------|
 |--------------------------|---------------|
 |--5--------7---------7----|--7------------|
 |--3--------5---------5----|--5------------|
 |--------------------------|---------------|

[D5] [E5] [C5] \2[D5]
~~~ ~~
 
 |--3---| |--3--| |-3--|

+E E +E +E E +E E. S +E E E E E +Q +H
 
 |----------------------|--------------|-----------|--------|
 |----------------------|--------------|-----------|--------|
 |-(9)------------------|--------------|-----------|--------|
 |-----/9-(9)-(9)-8-(8)-|-7--5-(5)-----|-----------|--------|
 |----------------------|----------7-5-|---0--(0)--|-(0)----|
 |----------------------|--------------|-0-0--(0)--|-(0)----|

|
| PM-----|
 
 | |------3------|

| Q Q Q H H H
 
 |----------------------|--------------|-----------|--------|
 |----------------------|--------------|-----------|--------|
 |----------------------|--------------|-----------|--------|
 |--7------9------9-----|-9------------|-5---------|--7-----|
 |--5------7------7-----|-7------------|-3---------|--5-----|
 |----------------------|--------------|-----------|--------|

Verse 2
[E5] ~~~~~~~~~~~~~~~~~~~~~~~~[D5]
 
 |---3---| |--3--| |---3---| |----3----|

e +E E E E E e +E E +E +E +E +H Q Q
 
 ||----------------------|---------------------------|---------|-------|
 ||o--8--(8)--8----------|---------------------------|---------|-------|
 ||--------------9p=7----|--7--(7)--9--(9)--(9)--(9)-|--(9)----|-------|
 ||--------------------9-|---------------------------|---------|-9--7--|
 ||o---------------------|---------------------------|---------|-7--5--|
 ||----------------------|---------------------------|---------|-------|

|
| ~~~~~~~~~~~~~~~~~~~~~~~~
 
 | |---3---| |--3--| |---3---| |----3----|

| e +E E E E E e +E E +E +E +E +H Q Q
 
 ||--15-(15)-15----------|---------------------------|---------|-------|
 ||o------------17p15----|-15-(15)-17-(17)-(17)-(17)-|-(17)----|-------|
 ||-------------------16-|---------------------------|---------|-------|
 ||----------------------|---------------------------|---------|-9--7--|
 ||o---------------------|---------------------------|---------|-7--5--|
 ||----------------------|---------------------------|---------|-------|

[C5]H +H [D5]H [G5]+H [D/F#] 3x
 
 |------|--------|------|-----------||
 |------|--------|------|----------o||
 |------|--------|------|-----------||
 |-5----|-(5)----|-7----|-(7)-------||
 |-3----|-(3)----|-5----|-(5)------o||
 |------|--------|------|-----------||

|
| H +H H Q Q 3x
 
 |------|--------|------|-----------||
 |------|--------|------|----------o||
 |------|--------|------|-----------||
 |-5----|-(5)----|-7----|-12---12---||
 |-3----|-(3)----|-5----|-10----9--o||
 |------|--------|------|-----------||

[E5] ~~~~~~~~~~~~~~~~~~~~~~~~[D5]
 
 |---3---| |--3--| |---3---| |----3----|

e +E E E E E e +E E +E +E +E +H Q Q
 
 |---------------------|---------------------------|---------|-------|
 |--8--(8)--8----------|---------------------------|---------|-------|
 |-------------9p=7----|--7--(7)--9--(9)--(9)--(9)-|--(9)----|-------|
 |-------------------9-|---------------------------|---------|-9--7--|
 |---------------------|---------------------------|---------|-7--5--|
 |---------------------|---------------------------|---------|-------|

|
| ~~~~~~~~~~~~~~~~~~~~~~~~
 
 | |---3---| |--3--| |---3---| |----3----|

| e +E E E E E e +E E +E +E +E +H Q Q
 
 |-15-(15)-15----------|---------------------------|---------|-------|
 |------------17p15----|-15-(15)-17-(17)-(17)-(17)-|-(17)----|-------|
 |------------------16-|---------------------------|---------|-------|
 |---------------------|---------------------------|---------|-9--7--|
 |---------------------|---------------------------|---------|-7--5--|
 |---------------------|---------------------------|---------|-------|

[C5] ~~~~~~~~ [D5]~~~~~~~ ~
 
 |-3--| |-3--| |-3--| |-3--|

Q +E E E Q +E E E Q +E E E E E E Q
 
 |------------|--------------|------------|------------|
 |--------7-8-|----------7-8-|--------7-8-|-10--7-8----|
 |------------|--9---(9)-----|-9--(9)-----|---------9--|
 |-5--(5)-----|--------------|------------|------------|
 |-3--(3)-----|--------------|------------|------------|
 |------------|--------------|------------|------------|

|
| ~~~~~~~~ ~~~~~~~ ~
 
 | |-3--| |-3--| |-3--| |-3--|

| Q +E E E Q +E E E Q +E E E E E E Q
 
 |------------|--------------|------------|------------|
 |------------|--------------|------------|------------|
 |------------|--------------|------------|------------|
 |-5--(5)-4-5-|----------4-5-|--------4-5-|--7--4-5----|
 |-3--(3)-----|--7---(7)-----|-7--(7)-----|---------7--|
 |------------|--------------|------------|------------|

|
| Gtr III
| H +H H +H
 
 |------------|--------------|------------|------------|
 |------------|--------------|------------|------------|
 |------------|--------------|------------|------------|
 |-5----------|-(5)----------|-7----------|-(7)--------|
 |-3----------|-(3)----------|-5----------|-(5)--------|
 |------------|--------------|------------|------------|

Chorus
[D5] [E5] ~~~~~
 
 |----3-----| |----3-----|

E +E +Q E +E E E +E E
 
 |-----------------------|-----------------------------|
 |-15-(15)b17====(15)r---|-15b17r(15)-12---------------|
 |-----------------------|---------------14b16r(14)-12-|
 |-----------------------|-----------------------------|
 |-----------------------|-----------------------------|
 |-----------------------|-----------------------------|

|
 
 | PM------|
 | |--------3---------|

| Q Q Q H
 
 |-----------------------|-----------------------------|
 |-----------------------|-----------------------------|
 |-----------------------|-----------------------------|
 |--7----------9-------9-|--9--------------------------|
 |--5----------7-------7-|--7--------------------------|
 |-----------------------|-----------------------------|

[C5] [D5] ~~~~~~~~~~~~~~~~~~
E +E +E +E +Q E. +S
 
 |-15-(15)b17---(15)---(15)-|-(15)r--17b19r(17)-|
 |--------------------------|-------------------|
 |--------------------------|-------------------|
 |--------------------------|-------------------|
 |--------------------------|-------------------|
 |--------------------------|-------------------|

|
| PM-----|
 
 | |-------3--------|

| Q Q Q H
 
 |--------------------------|-------------------|
 |--------------------------|-------------------|
 |--------------------------|-------------------|
 |--5---------7------7------|---7---------------|
 |--3---------5------5------|---5---------------|
 |--------------------------|-------------------|

[D5] [E5] ~~~~~ ~~~~~ ~~~~~
 
 |--3--| |--3--| |----------------3----------------|

[E] [E] [E] [E] [E] [E] [E] [+E] [E] [+E] [E] [+E]  
 
 |-15-------------15-|-20b22==(20)r-20b22==(20)r-20b22==(20)r-|
 |----17-15----------|----------------------------------------|
 |----------16-18----|----------------------------------------|
 |-------------------|----------------------------------------|
 |-------------------|----------------------------------------|
 |-------------------|----------------------------------------|

|
| PM---|
 
 | |-----3-----|

| Q Q Q H
 
 |-------------------|----------------------------------------|
 |-------------------|----------------------------------------|
 |-------------------|----------------------------------------|
 |--7-----9-----9----|--9-------------------------------------|
 |--5-----7-----7----|--7-------------------------------------|
 |-------------------|----------------------------------------|

~[C5]~~~~~~~~~~~~~~~~~~ [D5] ~~~~~~~
 
 |--3--| |--3---|

E +E +Q E E E E E +E
 
 |-20b22==(20)-(20)r--|-19-17-16-15---------|
 |--------------------|-------------17-(17)-|
 |--------------------|---------------------|
 |--------------------|---------------------|
 |--------------------|---------------------|
 |--------------------|---------------------|

|
| H H
 
 |--------------------|---------------------|
 |--------------------|---------------------|
 |--------------------|---------------------|
 |--5-----------------|--7------------------|
 |--3-----------------|--5------------------|
 |--------------------|---------------------|

[D5] ~~~~~~~~[E5] ~~~
 
 |----3----| |--3--| |--3--|

+E +E E E E E E E E S E.
 
 |------------------------|-----------------|
 |-(17)-(17)-/12-15-12----|-----------------|
 |---------------------15-|-14p12----12h14--|
 |------------------------|-------14--------|
 |------------------------|-----------------|
 |------------------------|-----------------|

|
| PM---|
 
 | |-------3-------|

| Q Q Q H
 
 |------------------------|-----------------|
 |------------------------|-----------------|
 |------------------------|-----------------|
 |---7---------9-----9----|--9--------------|
 |---5---------7-----7----|--7--------------|
 |------------------------|-----------------|

[C5] [D5] ~~~~ ~~ ~~~~
 
 |----3----| |--3--| |-3--|

+E +E +E S S S E S S S E Q
 
 |----------------------------|---------------|
 |----------------------------|---------------|
 |-(14)-(14)-(14)-12h14p12p11-|-12p11p9----9--|
 |----------------------------|---------11----|
 |----------------------------|---------------|
 |----------------------------|---------------|

|
 
 | PM-------|
 | |---------3---------|

| Q Q Q H
 
 |----------------------------|---------------|
 |----------------------------|---------------|
 |----------------------------|---------------|
 |---5---------7---------7----|--7------------|
 |---3---------5---------5----|--5------------|
 |----------------------------|---------------|

[D5] ~~~ [E5] ~~ [C5] ~~~~~[D5]~~~~
 
 |--3---| |--3--| |-3--| |-3-|

+E E +E +E E +E E. S +E E E E E E Q +H
 
 |----------------------|--------------|-----------|--------|
 |----------------------|--------------|------8----|--------|
 |-(9)------------------|--------------|----7---9--|-(9)----|
 |-----/9-(9)-(9)-8-(8)-|-7--5-(5)-----|-/9--------|--------|
 |----------------------|----------7-5-|-----------|--------|
 |----------------------|--------------|-----------|--------|

|
| PM-----|
 
 | |------3------|

| Q Q Q H H H
 
 |----------------------|--------------|-----------|--------|
 |----------------------|--------------|-----------|--------|
 |----------------------|--------------|-----------|--------|
 |--7------9------9-----|-9------------|--5--------|--7-----|
 |--5------7------7-----|-7------------|--3--------|--5-----|
 |----------------------|--------------|-----------|--------|

Verse 3
[E5] ~~~~~~~~~~~~~~~~~~~~~~~~[D5]
 
 |---3---| |--3--| |---3---| |----3----|

e +E E E E E e +E E +E +E +E +H Q Q
 
 ||----------------------|---------------------------|---------|-------|
 ||o--8--(8)--8----------|---------------------------|---------|-------|
 ||--------------9p=7----|--7--(7)--9--(9)--(9)--(9)-|--(9)----|-------|
 ||--------------------9-|---------------------------|---------|-9--7--|
 ||o---------------------|---------------------------|---------|-7--5--|
 ||----------------------|---------------------------|---------|-------|

|
| ~~~~~~~~~~~~~~~~~~~~~~~~
 
 | |---3---| |--3--| |---3---| |----3----|

| e +E E E E E e +E E +E +E +E +H Q Q
 
 ||--15-(15)-15----------|---------------------------|---------|-------|
 ||o------------17p15----|-15-(15)-17-(17)-(17)-(17)-|-(17)----|-------|
 ||-------------------16-|---------------------------|---------|-------|
 ||----------------------|---------------------------|---------|-9--7--|
 ||o---------------------|---------------------------|---------|-7--5--|
 ||----------------------|---------------------------|---------|-------|

[C5]H +H [D5]H [G5]+H [D/F#] 3x
 
 |------|--------|------|-----------||
 |------|--------|------|----------o||
 |------|--------|------|-----------||
 |-5----|-(5)----|-7----|-(7)-------||
 |-3----|-(3)----|-5----|-(5)------o||
 |------|--------|------|-----------||

|
| H +H H Q Q 3x
 
 |------|--------|------|-----------||
 |------|--------|------|----------o||
 |------|--------|------|-----------||
 |-5----|-(5)----|-7----|-12---12---||
 |-3----|-(3)----|-5----|-10----9--o||
 |------|--------|------|-----------||

[E5] ~~~~~~~~~~~~~~~~~~~~~~~~[D5]
 
 |---3---| |--3--| |---3---| |----3----|

e +E E E E E e +E E +E +E +E +H Q Q
 
 |---------------------|---------------------------|---------|-------|
 |--8--(8)--8----------|---------------------------|---------|-------|
 |-------------9p=7----|--7--(7)--9--(9)--(9)--(9)-|--(9)----|-------|
 |-------------------9-|---------------------------|---------|-9--7--|
 |---------------------|---------------------------|---------|-7--5--|
 |---------------------|---------------------------|---------|-------|

|
| ~~~~~~~~~~~~~~~~~~~~~~~~
 
 | |---3---| |--3--| |---3---| |----3----|

| e +E E E E E e +E E +E +E +E +H Q Q
 
 |-15-(15)-15----------|---------------------------|---------|-------|
 |------------17p15----|-15-(15)-17-(17)-(17)-(17)-|-(17)----|-------|
 |------------------16-|---------------------------|---------|-------|
 |---------------------|---------------------------|---------|-9--7--|
 |---------------------|---------------------------|---------|-7--5--|
 |---------------------|---------------------------|---------|-------|

[C5] ~~~~~~~~ [D5]~~~~~~~ ~
 
 |-3--| |-3--| |-3--| |-3--|

Q +E E E Q +E E E Q +E E E E E E Q
 
 |------------|--------------|------------|------------|
 |--------7-8-|----------7-8-|--------7-8-|-10--7-8----|
 |------------|--9---(9)-----|-9--(9)-----|---------9--|
 |-5--(5)-----|--------------|------------|------------|
 |-3--(3)-----|--------------|------------|------------|
 |------------|--------------|------------|------------|

|
| ~~~~~~~~ ~~~~~~~ ~
 
 | |-3--| |-3--| |-3--| |-3--|

| Q +E E E Q +E E E Q +E E E E E E Q
 
 |------------|--------------|------------|------------|
 |------------|--------------|------------|------------|
 |------------|--------------|------------|------------|
 |-5--(5)-4-5-|----------4-5-|--------4-5-|--7--4-5----|
 |-3--(3)-----|--7---(7)-----|-7--(7)-----|---------7--|
 |------------|--------------|------------|------------|

|
| Gtr III
| H +H H +H
 
 |------------|--------------|------------|------------|
 |------------|--------------|------------|------------|
 |------------|--------------|------------|------------|
 |-5----------|-(5)----------|-7----------|-(7)--------|
 |-3----------|-(3)----------|-5----------|-(5)--------|
 |------------|--------------|------------|------------|

Chorus
[D5] [E5] ~~~~~
 
 |----3-----| |----3-----|

E +E +Q E +E E E +E E
 
 |-----------------------|-----------------------------|
 |-15-(15)b17====(15)r---|-15b17r(15)-12---------------|
 |-----------------------|---------------14b16r(14)-12-|
 |-----------------------|-----------------------------|
 |-----------------------|-----------------------------|
 |-----------------------|-----------------------------|

|
 
 | PM------|
 | |--------3---------|

| Q Q Q H
 
 |-----------------------|-----------------------------|
 |-----------------------|-----------------------------|
 |-----------------------|-----------------------------|
 |--7----------9-------9-|--9--------------------------|
 |--5----------7-------7-|--7--------------------------|
 |-----------------------|-----------------------------|

[C5] [D5] ~~~~~~~~~~~~~~~~~~
E +E +E +E +Q E. +S
 
 |-15-(15)b17---(15)---(15)-|-(15)r--17b19r(17)-|
 |--------------------------|-------------------|
 |--------------------------|-------------------|
 |--------------------------|-------------------|
 |--------------------------|-------------------|
 |--------------------------|-------------------|

|
| PM-----|
 
 | |-------3--------|

| Q Q Q H
 
 |--------------------------|-------------------|
 |--------------------------|-------------------|
 |--------------------------|-------------------|
 |--5---------7------7------|---7---------------|
 |--3---------5------5------|---5---------------|
 |--------------------------|-------------------|

[D5] [E5] ~~~~~ ~~~~~ ~~~~~
 
 |--3--| |--3--| |----------------3----------------|

[E] [E] [E] [E] [E] [E] [E] [+E] [E] [+E] [E] [+E]  
 
 |-15-------------15-|-20b22==(20)r-20b22==(20)r-20b22==(20)r-|
 |----17-15----------|----------------------------------------|
 |----------16-18----|----------------------------------------|
 |-------------------|----------------------------------------|
 |-------------------|----------------------------------------|
 |-------------------|----------------------------------------|

|
| PM---|
 
 | |-----3-----|

| Q Q Q H
 
 |-------------------|----------------------------------------|
 |-------------------|----------------------------------------|
 |-------------------|----------------------------------------|
 |--7-----9-----9----|--9-------------------------------------|
 |--5-----7-----7----|--7-------------------------------------|
 |-------------------|----------------------------------------|

~[C5]~~~~~~~~~~~~~~~~~~ [D5] ~~~~~~~
 
 |--3--| |--3---|

E +E +Q E E E E E +E
 
 |-20b22==(20)-(20)r--|-19-17-15------------|
 |--------------------|----------19p17-(17)-|
 |--------------------|---------------------|
 |--------------------|---------------------|
 |--------------------|---------------------|
 |--------------------|---------------------|

|
| H H
 
 |--------------------|---------------------|
 |--------------------|---------------------|
 |--------------------|---------------------|
 |--5-----------------|--7------------------|
 |--3-----------------|--5------------------|
 |--------------------|---------------------|

[D5] ~~~~~~~~[E5] ~~~
 
 |----3----| |--3--| |--3--|

+E +E E E E E E E E S E.
 
 |------------------------|-----------------|
 |-(17)-(17)-/12-15-12----|-----------------|
 |---------------------15-|-14p12----12h14--|
 |------------------------|-------14--------|
 |------------------------|-----------------|
 |------------------------|-----------------|

|
| PM---|
 
 | |-------3-------|

| Q Q Q H
 
 |------------------------|-----------------|
 |------------------------|-----------------|
 |------------------------|-----------------|
 |---7---------9-----9----|--9--------------|
 |---5---------7-----7----|--7--------------|
 |------------------------|-----------------|

[C5] [D5] ~~~~ ~~ ~~~~
 
 |----3----| |--3--| |-3--|

+E +E +E S S S E S S S E Q
 
 |----------------------------|---------------|
 |----------------------------|---------------|
 |-(14)-(14)-(14)-12h14p12p11-|-12p11p9----9--|
 |----------------------------|---------11----|
 |----------------------------|---------------|
 |----------------------------|---------------|

|
 
 | PM-------|
 | |---------3---------|

| Q Q Q H
 
 |----------------------------|---------------|
 |----------------------------|---------------|
 |----------------------------|---------------|
 |---5---------7---------7----|--7------------|
 |---3---------5---------5----|--5------------|
 |----------------------------|---------------|

[D5] ~~~ [E5] ~~ [C5] ~~~~~[D5]~~~~
 
 |--3---| |--3--| |-3--| |-3-|

+E E +E +E E +E E. S +E E E E E E Q +H
 
 |----------------------|--------------|-----------|--------|
 |----------------------|--------------|------8----|--------|
 |-(9)------------------|--------------|----7---9--|-(9)----|
 |-----/9-(9)-(9)-8-(8)-|-7--5-(5)-----|-/9--------|--------|
 |----------------------|----------7-5-|-----------|--------|
 |----------------------|--------------|-----------|--------|

|
| PM-----|
 
 | |------3------|

| Q Q Q H H H
 
 |----------------------|--------------|-----------|--------|
 |----------------------|--------------|-----------|--------|
 |----------------------|--------------|-----------|--------|
 |--7------9------9-----|-9------------|--5--------|--7-----|
 |--5------7------7-----|-7------------|--3--------|--5-----|
 |----------------------|--------------|-----------|--------|

Out-Chorus
[D5] [E5] ~~~~~
 
 |----3-----| |----3-----|

E +E +Q E +E E E +E E
 
 |-----------------------|-----------------------------|
 |-15-(15)b17====(15)r---|-15b17r(15)-12---------------|
 |-----------------------|---------------14b16r(14)-12-|
 |-----------------------|-----------------------------|
 |-----------------------|-----------------------------|
 |-----------------------|-----------------------------|

|
 
 | PM------|
 | |--------3---------|

| Q Q Q H
 
 |-----------------------|-----------------------------|
 |-----------------------|-----------------------------|
 |-----------------------|-----------------------------|
 |--7----------9-------9-|--9--------------------------|
 |--5----------7-------7-|--7--------------------------|
 |-----------------------|-----------------------------|

[C5] [D5] ~~~~~~~~~~~~~~~~~~
E +E +E +E +Q E. +S
 
 |-15-(15)b17---(15)---(15)-|-(15)r--17b19r(17)-|
 |--------------------------|-------------------|
 |--------------------------|-------------------|
 |--------------------------|-------------------|
 |--------------------------|-------------------|
 |--------------------------|-------------------|

|
| PM-----|
 
 | |-------3--------|

| Q Q Q H
 
 |--------------------------|-------------------|
 |--------------------------|-------------------|
 |--------------------------|-------------------|
 |--5---------7------7------|---7---------------|
 |--3---------5------5------|---5---------------|
 |--------------------------|-------------------|

[D5] [E5] ~~~~~ ~~~~~ ~~~~~
 
 |--3--| |--3--| |----------------3----------------|

[E] [E] [E] [E] [E] [E] [E] [+E] [E] [+E] [E] [+E]  
 
 |-15-------------15-|-20b22==(20)r-20b22==(20)r-20b22==(20)r-|
 |----17-15----------|----------------------------------------|
 |----------16-18----|----------------------------------------|
 |-------------------|----------------------------------------|
 |-------------------|----------------------------------------|
 |-------------------|----------------------------------------|

|
| PM---|
 
 | |-----3-----|

| Q Q Q H
 
 |-------------------|----------------------------------------|
 |-------------------|----------------------------------------|
 |-------------------|----------------------------------------|
 |--7-----9-----9----|--9-------------------------------------|
 |--5-----7-----7----|--7-------------------------------------|
 |-------------------|----------------------------------------|

~[C5]~~~~~~~~~~~~~~~~~~ [D5] ~~~~~~~~~~~~
 
 |--3--| |---3----|

E +E +Q E E E E +E +E
 
 |-20b22==(20)-(20)r--|-19-17-15--------------|
 |--------------------|----------17-(17)-(17)-|
 |--------------------|-----------------------|
 |--------------------|-----------------------|
 |--------------------|-----------------------|
 |--------------------|-----------------------|

|
| H H
 
 |--------------------|-----------------------|
 |--------------------|-----------------------|
 |--------------------|-----------------------|
 |--5-----------------|--7--------------------|
 |--3-----------------|--5--------------------|
 |--------------------|-----------------------|

[D5] ~~~~~~~~[E5] ~~~
 
 |----3----| |--3--| |--3--|

+E +E E E E E E E E S E.
 
 |------------------------|-----------------|
 |-(17)-(17)-/12-15-12----|-----------------|
 |---------------------15-|-14p12----12h14--|
 |------------------------|-------14--------|
 |------------------------|-----------------|
 |------------------------|-----------------|

|
| PM---|
 
 | |-------3-------|

| Q Q Q H
 
 |------------------------|-----------------|
 |------------------------|-----------------|
 |------------------------|-----------------|
 |---7---------9-----9----|--9--------------|
 |---5---------7-----7----|--7--------------|
 |------------------------|-----------------|

[C5] [D5] ~~~~ ~~ ~~~~
 
 |----3----| |--3--| |-3--|

+E +E +E S S S E S S S E Q
 
 |----------------------------|---------------|
 |----------------------------|---------------|
 |-(14)-(14)-(14)-12h14p12p11-|-12p11p9----9--|
 |----------------------------|---------11----|
 |----------------------------|---------------|
 |----------------------------|---------------|

|
 
 | PM-------|
 | |---------3---------|

| Q Q Q H
 
 |----------------------------|---------------|
 |----------------------------|---------------|
 |----------------------------|---------------|
 |---5---------7---------7----|--7------------|
 |---3---------5---------5----|--5------------|
 |----------------------------|---------------|

H.=H
[D5] [E5] [C5]\2[D5]
~~~ ~~
 
 |--3---| |--3--| |-3--| |-3-|

+E E +E +E E +E E. S +E E E H Q Q Q
 
 |----------------------|--------------|--------|---------|
 |----------------------|--------------|--------|------7--|
 |-(9)------------------|--------------|--------|----7----|
 |-----/9-(9)-(9)-8-(8)-|-7--5-(5)-----|--------|-/9------|
 |----------------------|----------7-5-|-0------|---------|
 |----------------------|--------------|-0b4r===|=========|

|
| PM-----|
 
 | |------3------|

| Q Q Q H H H
 
 |----------------------|--------------|--------|---------|
 |----------------------|--------------|--------|---------|
 |----------------------|--------------|--------|---------|
 |--7------9------9-----|-9------------|-5------|--7------|
 |--5------7------7-----|-7------------|-3------|--5------|
 |----------------------|--------------|--------|---------|

[E5]~~~~~~~~~~~~~~~~~~~~~~~~~~~~~
[B] [+B] [+B] [+B]  
 
 |------|--------|--------|--------*|
 |-8----|-(8)----|-(8)----|-(8)----*|
 |------|--------|--------|--------*|
 |------|--------|--------|--------*|
 |------|--------|--------|--------*|
 |------|--------|--------|--------*|

|
| H +H +H +H
 
 |------|--------|--------|--------*|
 |------|--------|--------|--------*|
 |------|--------|--------|--------*|
 |-9----|-(9)----|-(9)----|-(9)----*|
 |-7----|-(7)----|-(7)----|-(7)----*|
 |-0----|-(0)----|-(0)----|-(0)----*|

Duration Legend
 
 ---------------
 W - whole; H - half; Q - quarter; E - 8th; S - 16th; T - 32nd; X - 64th; a - acciaccatura

+ - note tied to previous; . - note dotted; .. - note double dotted
Uncapitalized letters represent notes that are staccato (1/2 duration)
Irregular groupings are notated above the duration line
Duration letters will always appear directly above the note/fret number it represents the
duration for. Duration letters with no fret number below them represent rests. Multi-
bar rests are notated in the form Wxn, where n is the number of bars to rest for. Low
melody durations appear below the staff
Tablature Legend
 
 ----------------

h - hammer-on
p - pull-off
b - bend
pb - pre-bend
r - bend release (if no number after the r, then release immediately)
/\ - slide into or out of (from/to "nowhere")
s - legato slide
S - shift slide
- natural harmonic
(n) - artificial harmonic
n(n) - tapped harmonic
~ - vibrato
tr - trill
T - tap<br /

Important: The song above is NOT stored on the Chordie server. The original song is hosted at www.guitaretab.com. Chordie works as a search engine and provides on-the-fly formatting. Chordie does not index songs against artists'/composers' will. To remove this song please click here.

Text color:
Chord color:
Chord grids: 
Font size:    
Page size: 

B C5 D/F# D5 E E5 G5
Rate #1 of 3 versions

Login - add to songbook

SHARE PAGE  



You need to log in to post comments