Guitar Tabs, Chords and Lyrics
Server problems seems to be fixed. Chordie has been experiencing problems with songs disappearing. These issues now seems to be fixed, but still verifying the fix. If you find anything strange, please email admin@chordie.com.


Dallas 1 PM  Saxon

Band: Saxon
Album: Strong Arm of the Law
Song: Dallas 1 PM
Copyright (c) (Carrere) (1980)
Version 1.0 - (20/04/06)
Transcribed By: Steve
Email: stephen.elvidge1@ntlworld.com
. - palm mute / - slide up to
\ - slide down to ~ - vibrato
h - hammer on b - Bend
p - pull off Suffixes for bend
t - tap f - full bend h - half bend
ph - pinched harmonic q - quarter bend t - tap bend
* - see comment ^ - Hold bend r release bend
x - Stuccatto ~ - vibrato bend
, - slight palm mute () - ghost note, sustained note
" - tremolo note - harmonic
Tunning Eb Ab Db Gb Bb Eb
Intro
Backward guitar
Gradual fade in, increasing in pitch also
 
 E------------------------------------------------------------------|
 B------------------------------------------------------------------|
 G------------------------------------------------------------------|
 D------------------------------------------------------------------|
 A------------------------------------------------------------------|
 E-3-------------------------------/(4)------------------------/(5)-|

Bass and drums on own.
Guitar 1
~~~~~~~~~~~~~~~~
 
 E[-------------------------------------------------------------|
 B[-------------------------------------------------------------|
 G[-------5----------(5)---------------2---------(2)------------|
 D[-2-----5----------(5)---------2-----2---------(2)------------|
 A[-0-3-5------------------------0-3-5-0---------(0)------------|
 E[-------------------------------------------------------------|

Rpt 2 X
Guitar 1
~~~~~~~~~~~~~~~~
 
 E[-------------------------------------------------------------|
 B[-------------------------------------------------------------|
 G[-------5----------(5)---------------2---------(2)------------|
 D[-2-----5----------(5)---------2-----2---------(2)------------|
 A[-0-3-5------------------------0-3-5-0---------(0)------------|
 E[-------------------------------------------------------------| 

[Guitar 2
 
 [ [----------------------PM--------------------------]
 E[-------------------------------------------------------------|
 B[-------------------------------------------------------------|
 G[-------------------------------------------------------------|
 D[---------2-2-2-2-2-2-2-2-2-2-2-2-2-2-2-2-2-2-2-2-2-2-2-2-2-2-|
 A[---------0-0-0-0-0-0-0-0-0-0-0-0-0-0-0-0-0-0-0-0-0-0-0-0-0-0-|
 E[-------------------------------------------------------------|

Guitar 1
~~~~~~~~~~~~~~~~
 
 E[-------------------------------------------------------------|
 B[-------------------------------------------------------------|
 G[-------5----------(5)---------------2---------(2)------------|
 D[-2-----5----------(5)---------2-----2---------(2)------------|
 A[-0-3-5------------------------0-3-5-0---------(0)------------|
 E[-------------------------------------------------------------| 

[Guitar 2
 
 [[---------------------------PM------------------------------]
 E[-------------------------------------------------------------|
 B[-------------------------------------------------------------|
 G[-------------------------------------------------------------|
 D[-2-2-2-2-2-2-2-2-2-2-2-2-2-2-2-2-2-2-2-2-2-2-2-2-2-2-2-2-2-2-|
 A[-0-0-0-0-0-0-0-0-0-0-0-0-0-0-0-0-0-0-0-0-0-0-0-0-0-0-0-0-0-0-|
 E[-------------------------------------------------------------| 

[ Guitar 3
 
 [ [---PM---]~~~ [-PM-] ~~~~~~~[---PM---]~~~{-PM-]~~~~~~~
 E[-------------------------------------------------------------|
 B[-----------------5---------5-----------------5--------5------|
 G[-----------------5---------5-----------------5--------5------|
 D[-------7-5-7-5-7-----7-5-7---------7-5-7-5-7----7-5-7--------|
 A[-------------------------------------------------------------|
 E[-------------------------------------------------------------| Rpt 2 X

Guitar 1
~~~~~~~~~~~~~~~~
 
 E[-------------------------------------------------------------|
 B[-------------------------------------------------------------|
 G[-------5----------(5)---------------2---------(2)------------|
 D[-2-----5----------(5)---------2-----2---------(2)------------|
 A[-0-3-5------------------------0-3-0-0---------(0)------------|
 E[-------------------------------------------------------------| 

[Guitar 2
 
 [[---------------------------PM------------------------------]
 E[-------------------------------------------------------------|
 B[-------------------------------------------------------------|
 G[-------------------------------------------------------------|
 D[-2-2-2-2-2-2-2-2-2-2-2-2-2-2-2-2-2-2-2-2-2-2-2-2-2-2-2-2-2-2-|
 A[-0-0-0-0-0-0-0-0-0-0-0-0-0-0-0-0-0-0-0-0-0-0-0-0-0-0-0-0-0-0-|
 E[-------------------------------------------------------------| 

[ Guitar 3
 
 [ [---PM---]~~~ [-PM-] ~~~~~~~[---PM---]~~~{-PM-]~~~~~~~
 E[-------------------------------------------------------------|
 B[-----------------5---------5-----------------5--------5------|
 G[-----------------5---------5-----------------5--------5------|
 D[-------7-5-7-5-7-----7-5-7---------7-5-7-5-7----7-5-7--------|
 A[-------------------------------------------------------------|
 E[-------------------------------------------------------------| 

Chorus
 
 E-3--2--3--2--3-2----------------------------------------------|
 B-3--3--3--3--3-3----------------------------------------------|
 G-2--2--2--2--2-2-2-------------------(2)----------------------|
 D-0--0--0--0--0-0-2-------------------(2)----------------------|
 A-----------------0-------------------(0)----------------------|
 E--------------------------------------------------------------|

Guitar 1
 
 E[-3--2--3--2--3------------------------------------------------|
 B[-3--3--3--3--3-0-5----(5)-----5------(5)-----5--5--5--5--5--5-|
 G[-2--2--2--2--2---4----(4)-----4------(4)-----4--4--4--4--4--4-|
 D[-0--0--0--0--0---2----(2)-----2------(2)-----2--2--2--2--2--2-|
 A[--------------------------------------------------------------|
 E[--------------------------------------------------------------|

[Guitar 2
 
 E[-3--2--3--2--3-2----------------------------------------------|
 B[-3--3--3--3--3-3-9----(9)-----9------(5)-----99-10-99-10-99-9\|
 G[-2--2--2--2--2-2-9----(9)-----9------(4)-----99-9--99-9--99-9\|
 D[-0--0--0--0--0-0-9----(9)-----9------(2)-----99-9--99-9--99---|
 A[--------------------------------------------------------------|
 E[--------------------------------------------------------------|

Guitar 1
~~~~~~~~~~~~~~~~
 
 E[-------------------------------------------------------------|
 B[-------------------------------------------------------------|
 G[-------5----------(5)---------------2---------(2)------------|
 D[-2-----5----------(5)---------2-----2---------(2)------------|
 A[-0-3-5------------------------0-3-5-0---------(0)------------|
 E[-------------------------------------------------------------| 

[Guitar 2
 
 [[---------------------------PM------------------------------]
 E[-------------------------------------------------------------|
 B[-------------------------------------------------------------|
 G[-------------------------------------------------------------|
 D[-2-2-2-2-2-2-2-2-2-2-2-2-2-2-2-2-2-2-2-2-2-2-2-2-2-2-2-2-2-2-|
 A[-0-0-0-0-0-0-0-0-0-0-0-0-0-0-0-0-0-0-0-0-0-0-0-0-0-0-0-0-0-0-|
 E[-------------------------------------------------------------| 

[ Guitar 3
 
 [ [---PM---]~~~ [-PM-] ~~~~~~~[---PM---]~~~{-PM-]~~~~~~~
 E[-------------------------------------------------------------|
 B[-----------------5---------5-----------------5--------5------|
 G[-----------------5---------5-----------------5--------5------|
 D[-------7-5-7-5-7-----7-5-7---------7-5-7-5-7----7-5-7--------|
 A[-------------------------------------------------------------|
 E[-------------------------------------------------------------| Rpt 4 X

Verse
Rpt Main Riff 4 X
Rpt Chorus
Guitar 1
 
 E[-3--2--3--2--3------------------------------------------------|
 B[-3--3--3--3--3-0----------------------------------------------|
 G[-2--2--2--2--2----4---(4)------4-----(4)-----4--4--4--4--4--4-|
 D[-0--0--0--0--0---2----(2)-----2------(2)-----2--2--2--2--2--2-|
 A[--------------------------------------------------------------|
 E[--------------------------------------------------------------|

[Guitar 2
 
 E[-3--2--3--2--3-2----------------------------------------------|
 B[-3--3--3--3--3-3-9----(9)-----9------(5)-----99-10-99-10-99---|
 G[-2--2--2--2--2-2-9----(9)-----9------(4)-----99-9--99-9--99-9\|
 D[-0--0--0--0--0-0-9----(9)-----9------(2)-----99-9--99-9--99---|
 A[--------------------------------------------------------------|
 E[--------------------------------------------------------------|

Rpt Main Riff 4 X
Rpt Verse
Guitar 1
~~~~~~~~~~~~~~~~
 
 E[-----------------------------------------|
 B[-----------------------------------------|
 G[-------5----------(5)---------------2----|
 D[-2-----5----------(5)---------2-----2----|
 A[-0-3-5------------------------0-3-5-0----|
 E[-----------------------------------------| 

[Guitar 2
 
 [[-----------------PM----------------]
 E[-----------------------------------------|
 B[-----------------------------------------|
 G[-----------------------------------------|
 D[-2-2-2-2-2-2-2-2-2-2-2-2-2-2-2-2-2-2-----|
 A[-0-0-0-0-0-0-0-0-0-0-0-0-0-0-0-0-0-0-----|
 E[-----------------------------------------| 

[ Guitar 3
 
 [ [---PM---]~~~ [-PM-] ~~[-PM-]
 E[-----------------------------------------|
 B[-----------------5---------5-------------|
 G[-----------------5---------5--------2----|
 D[-------7-5-7-5-7-----7-5-7----7-5-7-2----|
 A[------------------------------------0----|
 E[-----------------------------------------| 

Clean guitar
 
 E--------------------------------------------------------------------|
 B-----0---0----------------------------------------------------------|
 G---0---0---0---0--------2-0-2---2-0---2-0-----0-----0-----0---0-0---|
 D-2-----------2---2-1-0--------0-----0-------0-----0-----0-----------|
 A------------------------------------------3-----3-----3-----3-----3-|
 E--------------------------------------------------------------------|
 E-----------------------|
 B-----------------------|
 G---2---2-2-0---0---0---|
 D-0---0-------0---0-----|
 A-----------------------|
 E-----------------------|

Slow guitar solo
~~~~~~~~~~~~~~~~~~~~~~~~~~~~ ~~~~~~~~~~~~~~~~~~~~~~~~~~~~
 
 E---------------------------------------------------------------|
 B-10fb------------------10fb-r-p8--15fb------------15fb---------|
 G---------------------------------------------------------------|
 D---------------------------------------------------------------|
 A---------------------------------------------------------------|
 E---------------------------------------------------------------|

~~~~~~~~~~~~~ ~~~~~~~
 
 E-----------------------------------|
 B-12--------------------------------|
 G----14b-----------r-12-------------|
 D-----------------------14----------|
 A-----------------------------------|
 E-----------------------------------|

~~~~~~
 
 E-----------------------------------|
 B-----------------------------------|
 G----11-12----11-12----11-12--------|
 D-14-------14-------14--------------|
 A-----------------------------------|
 E-----------------------------------|

Backing for solo
E-----|
B-----|
G-5/--|
D-5/--|
A-----|
E-----|
 
 E-----------------------------------------------------|
 B-----------------------------------------------------|
 G-9--9------9--9--9-----9---7--7------7--7--7---------|
 D-9--9------9--9--9-----9---7--7------7--7--7-7-7-7-7-|
 A-7--7--x-x-7--7--7-x-x-7-7-5--5--x-x-5--5--5-5-5-5-5-|
 E-----------------------------------------------------|
 E---------------------------------------------------------|
 B---------------------------------------------------------|
 G-5--5------5--5--5-----5---7--7------7--7--7-------------|
 D-5--5------5--5--5-----5---7--7------7--7--7-7-7-7-7-----|
 A-3--3--x-x-3--3--3-x-x-3-3-5--5--x-x-5--5--5-5-5-5-5-----|
 E-----------------------------------------------------3-2-|

Guitar solo cont.
[E] ~~~ [D] ~~~~~
 
 E-------------------------------------------------15-17fb-----17----|
 B-------------------------------------------12-15b------------------|
 G-14br12----12-14-14b-------14-12-------14b-------------------------|
 D--------14--------------14-------14-\------------------------------|
 A-------------------------------------------------------------------|
 E-------------------------------------------------------------------|

~~~~~~~~~[C]~~~~~~~~~~~~~~~~~~~~~~~~~ ~~~~~~~[D]~~~~~~~~~~~~~~~~~
 
 E-17fb-------17fb----------r-fb------r-p15---------15---------------|
 B------------------------------------------18b-----18b-----------b--|
 G-------------------------------------------------------------------|
 D-------------------------------------------------------------------|
 A-------------------------------------------------------------------|
 E-------------------------------------------------------------------|

~~~~~~~[E] ~~~~
 
 E----------------------------------------------------------------|
 B-r--------------------------------------------------------------|
 G----16-14-14fb-----12-----14-12----14-12\11-12-14-12----12---\--|
 D----------------------14--------14-------------------14---------|
 A----------------------------------------------------------------|
 E----------------------------------------------------------------|

[D] ~~~~ ~~~~[C]
 
 E-------------------------------------------------------------------|
 B-------14---------------12-15b-12----------------------------------|
 G-12----14---12----12\11-----------14-14b--12-----14-12-------------|
 D----14---------14----------------------------14--------14-13-12----|
 A----------------------------------------------------------------14-|
 E-------------------------------------------------------------------|

~~~~~~~~~ [D] ~~~~~~~ ~~~~~[E]~~~~~~~~~~~~~~
 
 E-------------------------------------------------------------------|
 B-------------------------------8-10-10b-----p8--------1212-12---12-|
 G--------------------------7--9-----------------9----14b--14b--14b--|
 D----------------/9----7-9------------------------------------------|
 A-12\10\7-------\---10----------------------------------------------|
 E-------------------------------------------------------------------|

~~~~~~~~~~~~~[D]
 
 E-----------------------------------------------|
 B---1212-12---12----1212-12---12---1212-12---12-|
 G-14b--14b--14b---14b--14b--14b--14b--14b--14b--|
 D-----------------------------------------------|
 A-----------------------------------------------|
 E-----------------------------------------------|

[C]~~~~~~~~~~~~~~~~~~~~~~~~~~~~~[D]~~~~~~~~~~~~~~~~~~~~~~~~~~~~~~
 
 E--------------------------------------------------------------|
 B---1212-12---12---1212-12---12---1212-12---12---1212-12---12--|
 G-14b--14b--14b--14b--14b--14b--14b--14b--14b--14b--14b--14b---|
 D--------------------------------------------------------------|
 A--------------------------------------------------------------|
 E--------------------------------------------------------------|
 [-------PM------]

[C] ~~~ [B]~~~~ [A] ~~~ [G] [F] ~~[F]~~[F] [F] [F] [F]
 
 E-------------------------------------------------------------------|
 B-12-15b--12--------------------------------------------------------|
 G------------14-14b--p12-----12-14-14br12----12-14-14b-r12----------|
 D------------------------14---------------14---------------14-13-12-|
 A-------------------------------------------------------------------|
 E-------------------------------------------------------------------|
 [-------------PM------------]

[F] [F] [F] [F] [F] [F] [F] [F] [F] [F] [F] [G]~~~[C]~~~~~~~~~~~[B]~~~~~~~~~~[A]~~~~~~~~~~[G]~~~~~
 
 E-----------------------------22b-22fb--22b-22fb--22b-22fb--22b-22fb|
 B-------------------------------------------------------------------|
 G-------------------------------------------------------------------|
 D-------------------------------------------------------------------|
 A-14\10-------------------------------------------------------------|
 E-------0--trem dive---/--------------------------------------------|
 [-------------------PM------------------------]

[F] ~~[F]~~~[F]~~~[F]~~~[F]~~~[F]~~~[F]~~~[F]~~~[F]~~~[F]~~~[F]~~~[F]~~~[F]~~~[F]~~~[F]~~~[F]~~~
 
 E-22fb-----------------------------r22fb----------|
 B-------------------------------------------------|
 G-------------------------------------------------|
 D-------------------------------------------------|
 A-------------------------------------------------|
 E-------------------------------------------------|
 E------|

B-3----|
G-0----|
D-0----|
 
 A------|

E-3----|
Rpt Main Riffs
Rpt Verse and Chorus
Rpt Main Riff 6 X
Guitar 1
~~~~~~~~~~~~~~~~
 
 E[-----------------------------------------|
 B[-----------------------------------------|
 G[-------5----------(5)---------------2----|
 D[-2-----5----------(5)---------2-----2----|
 A[-0-3-5------------------------0-3-5-0----|
 E[-----------------------------------------| 

[Guitar 2
 
 [[-----------------PM----------------]
 E[-----------------------------------------|
 B[-----------------------------------------|
 G[-----------------------------------------|
 D[-2-2-2-2-2-2-2-2-2-2-2-2-2-2-2-2-2-2-----|
 A[-0-0-0-0-0-0-0-0-0-0-0-0-0-0-0-0-0-0-----|
 E[-----------------------------------------| 

[ Guitar 3
 
 [ [---PM---]~~~ [-PM-] ~~[-PM-]
 E[-----------------------------------------|
 B[-----------------5---------5-------------|
 G[-----------------5---------5-------------|
 D[-------7-5-7-5-7-----7-5-7--------7-7----|
 A[----------------------------------0-0----|
 E[-----------------------------------------| 

END

Important: The song above is NOT stored on the Chordie server. The original song is hosted at www.guitaretab.com. Chordie works as a search engine and provides on-the-fly formatting. Chordie does not index songs against artists'/composers' will. To remove this song please click here.

Text color:
Chord color:
Chord grids: 
Font size:    
Page size: 

A B C D E F G
Rate #1 of 2 versions

Jango Player

Login - add to songbook

SHARE PAGE  



You need to log in to post comments