Guitar Tabs, Chords and Lyrics
Update 25:10. 13:00. Site is back up running again. Songbooks are recovered. Woring on getting search back up..


Under the Same Sun  Scorpions

 
 -------------------------------------------------------------------------------

UNDER THE SAME SUN - Scorpions
 
 ----------------------------------------------------------------------------

[---]  
Album: Acoustica
Tabbed by:Guitarmesteren
This is my first tab. Hope you will enjoy.
Intro:
Guitar 1 (Matthias Jabs)
 
 e|---------------------------------------------------------------------------|
 B|---------------------------------------------------------------------------|
 G|------------------------------------------------------0--------------------|
 D|------0-------0-------0---5------0-------0-------0-------------------------|
 A|----2---2---3---3---5---5------2---2---3---3---5---5---9h10p9--7--5--------|
 E|--2-------3-------5----------2-------3-------5-----------------------------|
 e|---------------------------------------------------------------------------|
 B|---------------------------------------------------------------------------|
 G|---------------------------0-----------------------------------------------|
 D|------0-------0-------0------------------------0-------0---0---------------|
 A|----2---2---3---3---5---5----9h10p9--7--5----2---2---3---3---5-------------|
 E|--2-------3-------5------------------------2-------3-------5---------------|
 It's the same in the verse, but add in the end A|--5-5-5-5-5----

Gitar 2 (Rudolf Schencker)
 
 e|---------------------------------------------------------------------------|
 B|---------------------------------------------------------------------------|
 G|--7--9--12--11--9--11~---12b14--12--11--9--7/9\7---------------------------|
 D|---------------------------------------------------------------------------|
 A|---------------------------------------------------------------------------|
 E|---------------------------------------------------------------------------|

That's also the same in the verse, listen to find the rythme
Verse 1: [Bm]I saw the [G]morning
It was [D]shattered by a gun
Heard a [Bm]scream, saw him[G] fall, no one [A]cried
[Bm]I saw a m[G]other
She was p[D]raying for her son
Bring him[Bm] back, let him [G]live, don't le[A]t him die
Chorus: [G]Do you ever [A]ask yourself
[F#m]Is there a Heaven in the [Bm]sky
[G]Why can't we get it r[A]ight
'cause we al[D]l live under the same su[F#m]n
We [D]all walk under the [F#m]same moon
[Em]Then why, [A]why can't we l[D]ive as one
Verse 2: [Bm]I saw the [G]evening
Fading s[D]hadows one by one
[Bm]We watch the lamb, [G]lay down to the sacrif[A]ice
[Bm]I saw the c[G]hildren
The chil[D]dren of the sun
[Bm]How they wept, how they [G]bled, how they d[A]ied
Chorus: D[G]o you ever a[A]sk yourself
[F#m]Is there a Heaven in the [Bm]sky
[G]Why can't we stop the[A] fight
'cause we al[D]l live under the sam[F#m]e sun
We [D]all walk under the [F#m]same moon
[Em]Then why, [A]why can't we l[D]ive as one[A]
Bridge: [Bm]Sometimes I think I'm going [G]mad
W[G]e're loosing all we h[Bb]ad and no [C]one seems [D]to care[F#m]
[Bm]But in my heart it doesn't c[G]hange
[G]We've got to r[Bb]earrange and [C]bring our world some [D]love
solo: Hm,G,A,G#,G,F#m x2
Chorus: A[G]nd does it r[A]eally matter
[F#m]If there's a heaven up ab[Bm]ove
[G]We sure could use som[A]e love
'cause we a[D]ll live under the sa[F#m]me sun
We a[D]ll walk under the sa[F#m]me moon
[Em]Then why, [A]why can't we l[D]ive as one[A]
'cau[D]se we all live under[F#m] the same sky
We a[D]ll look up at the sa[F#m]me stars
We a[D]ll live under the sa[F#m]me sun
We a[D]ll walk under the sa[F#m]me moon
[Em]Then why, [A]tell me why ca[D]n't we liv[A]e as one
| / slide up
| \ slide down
| h hammer-on
| p pull-off
| ~ vibrato
===============================================================================

Important: The song above is NOT stored on the Chordie server. The original song is hosted at www.guitaretab.com. Chordie works as a search engine and provides on-the-fly formatting. Chordie does not index songs against artists'/composers' will. To remove this song please click here.

Text color:
Chord color:
Chord grids: 
Font size:    
Page size: 

A Bb Bm C D Em F#m G
Rate #5 of 16 versions

Login - add to songbook

SHARE PAGE  




You need to log in to post comments