Guitar Tabs, Chords and Lyrics
Major upgrade!! After one year development the new version of Chordie is now online! Please give feedback.


Always Somewhere   Scorpions

 
 |-----------------------3-----3-----0---0-------0-------0-----0--|
 |-------1-----1-----0-----0-----0---------3-------3-------1------|
 |---------0-----0-----------0-----0---------2-------2-------2----|
 |-----------2-----2-------------------3-------2------------------|
 |-0-2-3-----------------------------------------------0----------|
 |---------------------3------------------------------------------|

 


 


 Rpt 2 x before drums enter


 


 Rpt Riff A. Guitar 2 plays the below variations


 h


 

 
 |-----------------------3-------5-3-----0-------0----------------|
 |-------1-----1-----0-----0--/5-----5-----3-------3-----0-1------|
 |---------0-----0-----------0---------------2-------2-------2----|
 |-----------2-----2-------------------3-------2------------------|
 |-0-2-3-----------------------------------------------0----------|
 |---------------------3------------------------------------------|

 


 


 Light overdrive


 ~~~~~~~~~~~~~~~~~~~~


 

 
 |-/3-------------------------|
 |-/3-1---3-------------------|
 |------2---------------------|
 |----------------------------|
 |----------------------------|
 |----------------------------|
 |-0-3------------|
 |-1-3----3p1-----|
 |-----2------2---|
 |----------------|
 |----------------|
 |----------------|

 


 


 Guitar solo


 ~~~~~~~~~~~ ~~~~~~~~~~~~~ ~~~~~~~~~~


 

 
 |----------------------------------------------------|
 |-3b----------3-------------4b--r--4b---rp2----------|
 |----------------------------------------------------|
 |----------------------------------------------------|
 |----------------------------------------------------|
 |----------------------------------------------------|

 


 


 Guitar 1


 ~~~~~~~~~~~ ~~~~~~~~~~~~~ ~~~~~~~~~~~~~~~~~~


 

 
 [----------------------------------------------------|
 [-3b----------3-------------8fb----------------------|
 [----------------------------------------------------|
 [----------------------------------------------------|
 [----------------------------------------------------|
 [----------------------------------------------------|

 


 [Guitar 2 Light overdrive


 

 
 [----------------------------------------------------|
 [------------------------------------1-1---3-1-------|
 [----------------------------------2-----2-----2-0---|
 [----------------------------------------------------|
 [----------------------------------------------------|
 [----------------------------------------------------|

 


 


 Verse


 


 1st time


 


 Guitar 1


 

 
 [-----------------------3-----3-----0---0-------0-------0-----0--|
 [-------1-----1-----0-----0-----0---------3-------3-------1------|
 [---------0-----0-----------0-----0---------2-------2-------2----|
 [-----------2-----2-------------------3-------2------------------|
 [-0-2-3-----------------------------------------------0----------|
 [---------------------3------------------------------------------|

 


 [Guitar 2


 [ h


 

 
 [-----------------------3-------5-3-----0-------0-------0-----0--|
 [-------1-----1-----0-----0--/5-----5-----3-------3-------1------|
 [---------0-----0-----------0---------------2-------2-------2----|
 [-----------2-----2-------------------3-------2------------------|
 [-0-2-3-----------------------------------------------0----------|
 [---------------------3------------------------------------------|
 |-----------------------3-----3-----0---0-----0-----0-----0-----|
 |-------1-----1-----0-----0-----0---------1-----1-----1-----1---|
 |---------0-----0-----------0-----0---------2-----2-----2-----2-|
 |-----------2-----2---------------------------------------------|
 |-0-2-3-------------------------------0-------------------------|
 |---------------------3-----------------------------------------|
 |-----------------------3-----3-----0---0-------0-------0-----0--|
 |-------1-----1-----0-----0-----0---------3-------3-------1------|
 |---------0-----0-----------0-----0---------2-------2-------2----|
 |-----------2-----2-------------------3-------2------------------|
 |-0-2-3-----------------------------------------------0----------|
 |---------------------3------------------------------------------|

 


 


 


 Guitar 1


 

 
 [-----------------------3-----3-----0---0-----0-----0-----0-----|
 [-------1-----1-----0-----0-----0---------1-----1-----1-----1---|
 [---------0-----0-----------0-----0---------2-----2-----2-----2-|
 [-----------2-----2---------------------------------------------|
 [-0-2-3-------------------------------0-------------------------|
 [---------------------3-----------------------------------------|

 


 [Guitar 2


 [ h


 

 
 [-----------------------3-------5-------------------0-----0-----|
 [-------1-----1-----0-----0--/5---5\3---------1-------1-----1---|
 [---------0-----0-----------0-----------------2---------2-----2-|
 [-----------2-----2---------------------------------------------|
 [-0-2-3-------------------------------0-------------------------|
 [---------------------3-----------------------------------------|

 


 


 Guitar solo


 


 ~~~~~ ~~~~~~


 

 
 |-15p13p12----13p12p10------\-|
 |-----------------------------|
 |-----------------------------|
 |-----------------------------|
 |-----------------------------|
 |-----------------------------|

 


 


 Volume swells ~~~~~~~~


 

 
 |-----------------------------|


Important: The song above is NOT stored on the Chordie server. The original song is hosted at www.guitaretab.com. Chordie works as a search engine and provides on-the-fly formatting. Chordie does not index songs against artists'/composers' will. To remove this song please click here.

This song is displayed as text-only. Transposing and tuning is only available for chordpro-songs.
Rate #1 of 14 versions

Login - add to songbook

SHARE PAGE  




You need to log in to post comments