Guitar Tabs, Chords and Lyrics
Major upgrade!! After one year development the new version of Chordie is now online! Please give feedback.


Shivers  The Screaming Jets

Shiver
Song: Shiver
Band: Screaming jets
Transcribed by Domenic Reitano
Here is the lead + solos for a very good Australian song.There were no tabs for the lead
to this song so i decided to tab it myself. I don't know how accurate it will be though,
i've only been learning coming on six months.You'll have to listen to the song to figure
out the timing etc. The song only has two chords G and Cadd9
b= bend
~~= vibrato
/=slide
p= pull off
h= hammer on
Intro
[G] [Cadd9]  
 
 e--3--------------------3----|
 B--3--------------------3----|
 G--0--------------------0----|
 D--0--------------------2----|
 A--2--------------------3----|
 E--3-------------------------|

intro
 
 e---------------------------------------------------------------------------|
 B---------------------------------------------------------------------------|
 G------5b6-5b6-5b7r--5b7-5~~~-5b6r-3----------------------------------------|
 D-7/---------------------------------5p3-5~~~--5p3--------------------------|
 A----------------------------------------------------5p3-5-3-----3/5-3------|
 E-------------------------------------------------------------6~-------6-3~-|

Verse 1
[G]Ive been contemplating suicide[Cadd9]
[G]But it really doesnt suit my sty[Cadd9]le
[G]So I think Ill just act bored ins[Cadd9]tead
[G]To contain the blood I could have s[Cadd9]hed
Bridge
[G]She makes me feel so weary[Cadd9]
[G]My heart is really on its kn[Cadd9]ees
[G]But I keep a poker face so we[Cadd9]ll
[G]That even mother could not t[Cadd9]ell
Chorus
That my babys s[G]o vain, she is almost a mirror[Cadd9]
And the sound [G]of her name sends a permanent shiver[Cadd9]
[G] [Cadd9]  
 
 Down my spi-i-i-i-i-i-ine

[G] [Cadd9]  
 
 Down my spi-i-i-i-i-i-ine

1:42
 
 e--------------------------------------------------------------------------|
 B--------------------------------------------------------------------------|
 G--5b7r~~~--3b5(slow)------------------------------------------------------|
 D---------------------5~~~-------------------------------------------------|
 A--------------------------------------------------------------------------|
 E--------------------------------------------------------------------------|

V2
Well I keep her photograph near my heart
Cause in my life she plays a starring part
Our love could hold on cigarettes
There is no room for these cheap regrets
Repeat bridge
Repeat chorus
solo
 
 e-----------------------------------8--8b10r--8b10r-------------------------|
 B-------------------6h8-8b10(slow)-----8b10r--8b10r--8p6-8~~~---------------|
 G--------------5h7----------------------------------------------------------|
 D-------3-5/8---------------------------------------------------------------|
 A--3/5----------------------------------------------------------------------|
 E---------------------------------------------------------------------------|
 e--------------------------------------------9--9b11r--9b11r---------9--9---|
 B-/10-11~~~--11-9-11~~~--11-9--9h11b13(slow)----9b11r--9b11r---9b11--9b11---|
 G---------------------------------------------------------------------------|
 D---------------------------------------------------------------------------|
 A---------------------------------------------------------------------------|
 E---------------------------------------------------------------------------|
 e-9--9--9------------------/14--12-------------------------------------------|
 B-9b11--9b11r--8-6-8~~-8------------13-15------------------------------------|
 G-----------------------------------------12---12-14-12~~~--14b15rb16r--12~~-|
 D----------------------------------------------------------------------------|
 A----------------------------------------------------------------------------|
 E----------------------------------------------------------------------------|

Continued while dave is singing Chorus
 
 e----------------------------------------------------------------------------|
 B----------------------------------14-------14-----14-----------------14-----|
 G-------11-11--------11--------11--13b15r---13b15r-13b15r---11-----11-13b15~-|
 D-11h13--------11h13-----11h13----------------------------------13-----------|
 A----------------------------------------------------------------------------|
 E----------------------------------------------------------------------------|


Important: The song above is NOT stored on the Chordie server. The original song is hosted at www.guitaretab.com. Chordie works as a search engine and provides on-the-fly formatting. Chordie does not index songs against artists'/composers' will. To remove this song please click here.

Text color:
Chord color:
Chord grids: 
Font size:    
Page size: 

Cadd9 G
Rate #1 of 3 versions

Jango Player

Login - add to songbook

SHARE PAGE  



You need to log in to post comments