Guitar Tabs, Chords and Lyrics
Server problems seems to be fixed. Chordie has been experiencing problems with songs disappearing. These issues now seems to be fixed, but still verifying the fix. If you find anything strange, please email admin@chordie.com.


Guest List  Screeching Weasel

Date: Fri, 5 Apr 1996 01:30:39 -0500
"Guest List"
performed by Screeching Weasel
written by Ben Weasel and Danny Vapid
(C) 1991 Screeching Weasel
from the Lookout! Records release My Brain Hurts (LK 50 LP/CS/CD)
transcribed by Mike Ripplinger (openface@aol.com)
***
["Guest List"] 
[ B / G# / E ] x3 (with lead A)
[ B / G# / E ] (different rhytmn) x4 (with lead A)
[Verse]:
[B] I was hanging [G#]at [E]the show
[B] Feeling like a [G#]fat po[E]tato
[B] I don't know [G#]what I'm [E]doing [F#]here
[B] I saw her [G#]at the [E]door
[B] And she [G#]looked as [E]bored
[B] As me [G#]so I [E]got her [F#]in
[Cborus]:
[G#] I put her on the [F#]guest list at the [E]show
And [F#]now I get to watch her [G#]dance like the [F#]other weirdos [E]do
[ B / G# / E ] x2 (with lead A)
[Verse]:
I saw she brought a camera
She did the groin-o-rama
And we were really having fun
I told her I was the singer
I felt like Harvey Klinger
And then she smacked me in the head
[Repeat Cborus] 
[ B / G# / E ] x4 (with lead B)
[Repeat Cborus] 
[Repeat Cborus to end] (with lead C)
***
Lead guitar parts:
[A] 
 
 E-------------------------------------------------------|
 B--0-0-0-7-7-7-4-4-5-5-5-4-4-4-0-0-5-5-5-4--0-----------|
 G-------------------------------------------------------|
 D----------------------------------------------2-2-2-2--|
 A-------------------------------------------------------|
 E-------------------------------------------------------|

and repeat
[B] 
First play [A] twice, then play this four times:
 
 E-----------------------------------|
 B--0-0-0-7-7-7-4-4-5-5-5-4-4-4-0-0--|
 G-----------------------------------|
 D-----------------------------------|
 A-----------------------------------|
 E-----------------------------------|

[C] 
Play [C] four times, then play this four times:
 
 E-----------14-14-14-11-11-12-12-12-11-11-11--------|
 B--12-12-12----------------------------------12-12--|
 G---------------------------------------------------|
 D---------------------------------------------------|
 A---------------------------------------------------|
 E---------------------------------------------------|


Important: The song above is NOT stored on the Chordie server. The original song is hosted at www.guitaretab.com. Chordie works as a search engine and provides on-the-fly formatting. Chordie does not index songs against artists'/composers' will. To remove this song please click here.

Text color:
Chord color:
Chord grids: 
Font size:    
Page size: 

A B C E F# G#
Rate #0 of 5 versions

Jango Player

Login - add to songbook

SHARE PAGE  



You need to log in to post comments