Guitar Tabs, Chords and Lyrics
Server problems seems to be fixed. Chordie has been experiencing problems with songs disappearing. These issues now seems to be fixed, but still verifying the fix. If you find anything strange, please email admin@chordie.com.


Keep Your Eyes on Me  Sean Forrest

Sean Forrest - Keep Your Eyes On Me
http://www.mwts.org/
(placing a CAPO on the 2nd Fret really helps)
[F#]I Sailed a boat ou[B]t on the water
Waves were slapping at the bow
I saw our lord walk on the water
Only He could know just how
I called His name He said come over
I took a step 5 miles from shore
Next thing I knew I was standing up
Way above the ocean floor (and He said)
[B] [C#]its [A#m]so easy....
[B]just keep your eyes on me
[B] [C#]its[A#m] so easy....
J[B]ust let your faith flow free
[B]cause[C#] in all t[A#m]hat I am
[C#]and the love t[B]hat I have
[F#]is for free[B]
[F#]The sky turned gra[B]y it became windy
The waves around me they did roar
I took my eyes off of my Father
... Into the water I did go
I tried to swim I tried to paddle
My faith was nowhere to be found
Then my Father came & picked me up (and said)
son did you think I'd let you drowned
[B] [C#]its [A#m]so easy....
[B]Just keep your eyes on me
[B] [C#]its[A#m] so easy....
J[B]ust let your faith flow free
[B]cause[C#] in all t[A#m]hat I am
[C#]and the love t[B]hat I have
[F#]is for free[B]
 
 e-|--------------------------------------------------6-6-7-6----------|
 B-|--------------------6/7~-7-7-9p7-7~--7-7-9p7-7~-----------7~-------|
 G-|----------------6-8-------------8-----------8----------------------|
 D-|-4/6\4~-4-6-8-9----------------------------------------------------|
 A-|-------------------------------------------------------------------|
 E-|-------------------------------------------------------------------|
 e-|-9-9-11-13-14-14-13-9-7-6-6-7-7-6----------------------------------|
 B-|----------------------------------7~-7h9p7\6~-7-7-6----------------|
 G-|----------------------------------------------------6--------------|
 D-|------------------------------------------------------9-8-8-9-8-4~-|
 A-|-------------------------------------------------------------------|
 E-|-------------------------------------------------------------------|

[B]I think that applies [F#]more than to water
... Like every aspect of my life
To keep our eyes upon on the Father and
[C#]to see His light ..[C#]. to see His light
x2
[B] [C#]its [A#m]so easy....
[B]Just keep your eyes on me
[B] [C#]its[A#m] so easy....
J[B]ust let your faith flow free
[B]cause[C#] in all t[A#m]hat I am
[C#]and the love t[B]hat I have
[F#]is for free[B]

Important: The song above is NOT stored on the Chordie server. The original song is hosted at www.guitaretab.com. Chordie works as a search engine and provides on-the-fly formatting. Chordie does not index songs against artists'/composers' will. To remove this song please click here.

Text color:
Chord color:
Chord grids: 
Font size:    
Page size: 

A#m B C# F#
Rate #1 of 1 versions

Login - add to songbook

SHARE PAGE  




You need to log in to post comments