Guitar Tabs, Chords and Lyrics
Server problems seems to be fixed. Chordie has been experiencing problems with songs disappearing. These issues now seems to be fixed, but still verifying the fix. If you find anything strange, please email admin@chordie.com.


Zombie Crew   Send More Paramedics

 
 [-------------------------PM-----------------------------]
 E-----------------------------------------------------------------|
 B-----------------------------------------------------------------|
 G-----------------------------------------------------------6-6-6-|
 D-------5\4-4-4-------------------------5\4-4-4-------------6-6-6-|
 A-2-2-2-3\2-2-2-2/5-5-5-5-5-5-5-5-2-2-2-3\2-2-2-2/5-5-5-5-5-4-4-4-|
 E-2-2-2---------2/5-5-5-5-5-5-5-5-2-2-2---------2/5-5-5-5-5-------|

 


 


 Rpt 2 X


 Rpt 2 X for verse


 


 Chorus


 

 
 [---------PM--------]
 E--------------------------------------------------|
 B--------------------------------------------------|
 G-------------------------------------------9---9--|
 D----6\5-------5\4--------------------------9---9--|
 A-5--4\3--5\4--3\2--3p2---------------------7-x-7--|
 E-5-------5\4-------3p2-2-2-2-2-2-2-2-2-2-2--------| Rpt 3 X
 E-------------------------------------------------------------------|
 B-------------------------------------------------------------------|
 G-------------------------------------------------------------------|
 D----6\5-------5\4--------------------------------------------------|
 A-5--4\3--5\4--3\2--3p2--------------------(2)----------------------|
 E-5-------5\4-------3p2--------------------(2)----------------------|

 


 


 Fast section


 


 

 
 [-------------PM--------------]
 E------------------------------------------------------------|
 B------------------------------------------------------------|
 G------------------------------------------------------------|
 D---------------------------------5-5----9-9----4-4--5-7-7---|
 A-2-2-222-2-2-222-2-2-222-2-2-222-3-3--8-7-7--3-2-2----5-5---|
 E-2-2-222-2-2-222-2-2-222-2-2-222----------------------------| Rpt 3 X

 


 


 Lead fill 1


 ~~~~~


 

 
 E-------------------------|
 B-----------------8-------|
 G-----------7-9-7---9-----|
 D---5---7-----------------|
 A-7---7---7---------------|
 E-------------------------|

 


 Lead fill 2


 ~~~~~~


 

 
 E------------------------------------|
 B-------10-9-8-----------------------|
 G-9-8-7--------9-8-7------9-10-9-----|
 D--------------------10-7------------|
 A------------------------------------|
 E------------------------------------|

 


 


 Rpt Lead fill 1


 


 Last time


 


 

 
 [-------------PM--------------]
 E------------------------------------------------------------|
 B------------------------------------------------------------|
 G------------------------------------------------------------|
 D---------------------------------5-5----9-9----/12--(12)----|
 A-2-2-222-2-2-222-2-2-222-2-2-222-3-3--8-7-7--3-/10--(10)----|
 E-2-2-222-2-2-222-2-2-222-2-2-222----------------------------|

 


 Mid 8


 PM


 

 
 E--------------------------------------|
 B--------------------------------------|
 G--------------------------------------|
 D-9-9/10\9-9-9/10\9\5/7---4-4-4--(4)---|
 A-7-7/8-\7-7-7/8-\7\3/5-0-2-2-2--(2)---|
 E--------------------------------------| Rpt 3 X
 [-------------PM--------------]
 E----------------------------------|
 B----------------------------------|
 G----------------------------------|
 D-2-2-2-2-2-2-2-2------------------|
 A-0-0-0-0-0-0-0-0-5-5-5-5-5-5-5-5--|
 E-----------------5-5-5-5-5-5-5-5--|

 


 


 Rpt above Riffs


 


 

 
 [------------PM--------------]
 E------------------------------------|
 B------------------------------------|
 G------------------------------------|
 D-2-2-2-2-2-2-2-2--------------------|
 A-0-0-0-0-0-0-0-0-5-5-5-5-5-5-5-(5)--|
 E-----------------5-5-5-5-5-5-5-(5)--|

 


 


 Rpt Fast Section


 


 Additional lead fill


 ~~~~~~~~ ~~~~~~ h ~~~~~~~~~~~h ~~~~~


 

 
 E---------------------------------------------------|
 B-15br-15br--15br-15br-------14-14-14p12-14p12------|
 G----------------------12-14-14-14-14p12-14p12------|
 D---------------------------------------------------|
 A---------------------------------------------------|
 E---------------------------------------------------|

 


 


 Rpt Lead fill 1 and 2


 


 Backing for guitar solo


 


 

 
 E-----------------------------------------------------------------------|
 B-----------------------------------------------------------------------|
 G-----------------------------------------------------------------------|
 D-999999999999999-15-15-15\12-12--12-----------------10-10-10/13-13--13-|
 A-777777777777777-13-13-13\10-10--10-777777777777777-8--8--8-/11-11--11-|
 E------------------------------------777777777777777--------------------|

 


 Rpt 4 X


 


 Guitar solo


 


 

 
 E-------------------------------------------------------------|
 B-----------------------------8-7-8-10-8-10/12-10-12-13-12-10-|
 G-----------------------7---7---------------------------------|
 D-------5---5-7-5/9-7-9---9-----------------------------------|
 A-7-5-7---7---------------------------------------------------|
 E-------------------------------------------------------------|
 E-----------------------------------|
 B-12-10-12-13-12-10-12-13-12-10-12--|
 G-------------------------------14b-|
 D-----------------------------------|
 A-----------------------------------|
 E-----------------------------------|
 E-----------------------------------|
 B-15fb-15fb-15fb-15fb-11-11-11\8-8--|
 G---------------------10-10-10\7-7--|
 D-----------------------------------|
 A-----------------------------------|
 E-----------------------------------|
 E14-15-14-12----12-14-15p14-15p12-15-14-12-14-12--|
 B------------13-----------------------------------|
 G-------------------------------------------------|
 D-------------------------------------------------|
 A-------------------------------------------------|
 E-------------------------------------------------|

 


 


 h h h h


 

 
 E-15-12-15p12-15p12-----------------------------------|
 B-------------------15p12--12-15p12-15p12\11--15brp12-|
 G-----------------------------------------------------|
 D-----------------------------------------------------|
 A-----------------------------------------------------|
 E-----------------------------------------------------|

 


 h h ~~~~ph~~~


 

 
 E-------------------------------------------------|
 B-12-15p13p12-12-15p13p12-------------9-----------|
 G-------------------------14-14-11-12---12--9-----|
 D-------------------------------------------------|
 A-------------------------------------------------|
 E-------------------------------------------------|

 


 ph


 

 
 E-------------------------------------------------------|
 B----8---10fbrp8---8-8--12-12-13p12--12-13p12-----------|
 G-9----9---------9------14b14b----------------12-14p12--|
 D-------------------------------------------------------|
 A-------------------------------------------------------|
 E-------------------------------------------------------|

 


 


 Rpt Mid 8


 


 

 
 [------------------PM---------------------]
 E--------------------------------------------|
 B--------------------------------------------|
 G--------------------------------------------|
 D--------------------------------------------|
 A-4-4-4-4-4-4-4-4-4-4-3-3-3-3-3-3-3-3--3--3--|
 E-4-4-4-4-4-4-4-4-4-4-3-3-3-3-3-3-3-3--3--3--|
 [------PM------] [------PM------]
 E----------------------------------------------------------|
 B----------------------------------------------------------|
 G----------------------------------------------------------|
 D-----5\4-------------------------5\4----------------------|
 A-2-x-3\2-x-3/5-5-5-5-5-5-5-5-2-x-3\2-x-3/5-5/8-8-5-5/8-8--|
 E-2-x-------3/5-5-5-5-5-5-5-5-2-x-------3/5-5/8-8-5-5/8-8--|
 [--PM--] [PM-] [----PM-----]
 E----------------------------------------------------------|
 B----------------------------------------------------------|
 G----------------------------------------------------------|
 D-----5\4-----------------------5\4-----------------6-6-6--|
 A-2-x-3\2-x-3/5-5-5-5--5-5--2-x-3\2-x-3/5-5-5-5-5-5-4-4-4--|
 E-2-x-------3/5-5-5-5--5-5--2-x-------3/5-5-5-5-5-5--------| 

 


 


 Rpt Chorus


 

 
 [---------PM-----------]
 E-----------------------------|
 B-----------------------------|
 G-------------------------4-4-|
 D-------------------------2-2-|
 A-2-2-2-2-2-2-2-2-2-2-2-2-----|
 E-2-2-2-2-2-2-2-2-2-2-2-2-----| Rpt to fade.


Important: The song above is NOT stored on the Chordie server. The original song is hosted at www.guitaretab.com. Chordie works as a search engine and provides on-the-fly formatting. Chordie does not index songs against artists'/composers' will. To remove this song please click here.

This song is displayed as text-only. Transposing and tuning is only available for chordpro-songs.
Rate #1 of 3 versions

Jango Player

Login - add to songbook

SHARE PAGE  




You need to log in to post comments