Guitar Tabs, Chords and Lyrics
Server problems seems to be fixed. Chordie has been experiencing problems with songs disappearing. These issues now seems to be fixed, but still verifying the fix. If you find anything strange, please email admin@chordie.com.


Ever-Frost  Sentenced

Ever-Frost
THIS IS NOT MY WORK. CREDIT GOES TO NEEDLED. I SIMPLY AM TAKING THIS FROM GUITAR PRO.
Sentenced
Guitar 1 (Clean)
Fade in...
[E] [E] [E] [E] [E] [E] [E] [E] [E] [E] [E] [E] [E] [E] [E] [E]  
 
 E||--------------------1-----0-----3--|-----1-----0--------------|
 B||--------------3--------------------|-----------------1-----3--|
 G||*----------------------------------|--------------------------|
 D||*--0-------------0-----0-----0-----|--0-----0-----0-----0-----|
 A||-----------------------------------|--------------------------|
 E||-----------------------------------|--------------------------|

E E E E E E E E E E E E E E E E 4x
 
 -----------1-----0--------|---------------------------||
 -----3-----------------1--|-----------3-----1-----3---||
 --------------------------|-----3--------------------*||
 --0-----0-----0-----0-----|--0-----0-----0-----0-----*||
 --------------------------|---------------------------||
 --------------------------|---------------------------||

[E] [E] [E] [E] [E] [E] [E] [E] [E] [E] [E] [E] [E] [E] [E] [E]  
 
 -----------1-----0-----3--|-----1-----0--------------|
 -----3--------------------|-----------------1-----3--|
 --------------------------|--------------------------|
 --0-----0-----0-----0-----|--0-----0-----0-----0-----|
 --------------------------|--------------------------|
 --------------------------|--------------------------|

[E] [E] [E] [E] [E] [E] [E] [E] [E] [E] [E] [E] [E] [E] [E] [E]  
 
 -----------1-----0--------|--------------------------|
 -----3-----------------1--|-----------3-----1-----3--|
 --------------------------|-----3--------------------|
 --0-----0-----0-----0-----|--0-----0-----0-----0-----|
 --------------------------|--------------------------|
 --------------------------|--------------------------|

[E] [E] [E] [E] [E] [E] [E] [E] [E] [E] [E] [E] [E] [E] [E] [E]  
 
 -----------1-----0-----3--|-----1-----0--------------|
 -----3--------------------|-----------------1-----3--|
 --------------------------|--------------------------|
 --0-----0-----0-----0-----|--0-----0-----0-----0-----|
 --------------------------|--------------------------|
 --------------------------|--------------------------|

[E] [E] [E] [E] [E] [E] [E] [E] [E] [E] [E] [E] [E] [E] [E] [E]  
 
 -----------1-----0--------|--------------------------|
 -----3-----------------1--|-----------3-----1-----3--|
 --------------------------|-----3--------------------|
 --0-----0-----0-----0-----|--0-----0-----0-----0-----|
 --------------------------|--------------------------|
 --------------------------|--------------------------|

[E] [E] [E] [E] [E] [E] [E] [E] [E] [E] [E] [E] [E] [E] [E] [E]  
 
 -----------1-----0-----3--|-----1-----0--------------|
 -----3--------------------|-----------------1-----3--|
 --------------------------|--------------------------|
 --0-----0-----0-----0-----|--0-----0-----0-----0-----|
 --------------------------|--------------------------|
 --------------------------|--------------------------|

[E] [E] [E] [E] [E] [E] [E] [E] [E] [E] [E] [E] [E] [E] [E] [E]  
 
 -----------1-----0--------|--------------------------|
 -----3-----------------1--|-----------3-----1-----3--|
 --------------------------|-----3--------------------|
 --0-----0-----0-----0-----|--0-----0-----0-----0-----|
 --------------------------|--------------------------|
 --------------------------|--------------------------|

[E] [E] [E] [E] [E] [E] [E] [E] [E] [E] [E] [E] [E] [E] [E] [E]  
 
 -----------1-----0-----3--|-----1-----0--------------|
 -----3--------------------|-----------------1-----3--|
 --------------------------|--------------------------|
 --0-----0-----0-----0-----|--0-----0-----0-----0-----|
 --------------------------|--------------------------|
 --------------------------|--------------------------|

[E] [E] [E] [E] [E] [E] [E] [E] [E] [E] [E] [E] [E] [E] [E] [E]  
 
 -----------1-----0--------|--------------------------|
 -----3-----------------1--|-----------3-----1-----3--|
 --------------------------|-----3--------------------|
 --0-----0-----0-----0-----|--0-----0-----0-----0-----|
 --------------------------|--------------------------|
 --------------------------|--------------------------|

[E] [E] [E] [E] [E] [E] [E] [E] [E] [E] [E] [E] [E] [E] [E] [E]  
 
 -----------1-----0-----3--|-----1-----0--------------|
 -----3--------------------|-----------------1-----3--|
 --------------------------|--------------------------|
 --0-----0-----0-----0-----|--0-----0-----0-----0-----|
 --------------------------|--------------------------|
 --------------------------|--------------------------|

E E E E E E E E E E E E E E E E W
 
 -----------1-----0--------|--------------------------||--------------------|
 -----3-----------------1--|-----------3-----1-----3--||--------------------|
 --------------------------|-----3--------------------||*-------------------|
 --0-----0-----0-----0-----|--0-----0-----0-----0-----||*-------------------|
 --------------------------|--------------------------||--------------------|
 --------------------------|--------------------------||--------------------|

W W W
 
 -------------------|-------------------|--------------------||
 -------------------|-------------------|--------------------||
 -------------------|-------------------|-------------------*||
 -------------------|-------------------|-------------------*||
 -------------------|-------------------|--------------------||
 -------------------|-------------------|--------------------||

W W W W
 
 -------------------|-------------------|-------------------|-------------------|
 -------------------|-------------------|-------------------|-------------------|
 -------------------|-------------------|-------------------|-------------------|
 -------------------|-------------------|-------------------|-------------------|
 -------------------|-------------------|-------------------|-------------------|
 -------------------|-------------------|-------------------|-------------------|

W W E E E E E E E E
 
 -------------------|-------------------|-----------1-----0-----3--|
 -------------------|-------------------|-----3--------------------|
 -------------------|-------------------|--------------------------|
 -------------------|-------------------|--0-----0-----0-----0-----|
 -------------------|-------------------|--------------------------|
 -------------------|-------------------|--------------------------|

[E] [E] [E] [E] [E] [E] [E] [E] [E] [E] [E] [E] [E] [E] [E] [E]  
 
 -----1-----0--------------|-----------1-----0--------|
 -----------------1-----3--|-----3-----------------1--|
 --------------------------|--------------------------|
 --0-----0-----0-----0-----|--0-----0-----0-----0-----|
 --------------------------|--------------------------|
 --------------------------|--------------------------|

E E E E E E E E W W
 
 --------------------------|-------------------|-------------------|
 -----------3-----1-----3--|-------------------|-------------------|
 -----3--------------------|-------------------|-------------------|
 --0-----0-----0-----0-----|-------------------|-------------------|
 --------------------------|-------------------|-------------------|
 --------------------------|-------------------|-------------------|

W W E E E E E E E E
 
 -------------------|-------------------|-----------1-----0-----3--|
 -------------------|-------------------|-----3--------------------|
 -------------------|-------------------|--------------------------|
 -------------------|-------------------|--0-----0-----0-----0-----|
 -------------------|-------------------|--------------------------|
 -------------------|-------------------|--------------------------|

[E] [E] [E] [E] [E] [E] [E] [E] [E] [E] [E] [E] [E] [E] [E] [E]  
 
 -----1-----0--------------|-----------1-----0--------|
 -----------------1-----3--|-----3-----------------1--|
 --------------------------|--------------------------|
 --0-----0-----0-----0-----|--0-----0-----0-----0-----|
 --------------------------|--------------------------|
 --------------------------|--------------------------|

E E E E E E E E W W
 
 --------------------------|-------------------|-------------------|
 -----------3-----1-----3--|-------------------|-------------------|
 -----3--------------------|-------------------|-------------------|
 --0-----0-----0-----0-----|-------------------|-------------------|
 --------------------------|-------------------|-------------------|
 --------------------------|-------------------|-------------------|

W W W W
 
 -------------------|-------------------|-------------------|-------------------|
 -------------------|-------------------|-------------------|-------------------|
 -------------------|-------------------|-------------------|-------------------|
 -------------------|-------------------|-------------------|-------------------|
 -------------------|-------------------|-------------------|-------------------|
 -------------------|-------------------|-------------------|-------------------|

W W W W
 
 -------------------|-------------------|-------------------|-------------------|
 -------------------|-------------------|-------------------|-------------------|
 -------------------|-------------------|-------------------|-------------------|
 -------------------|-------------------|-------------------|-------------------|
 -------------------|-------------------|-------------------|-------------------|
 -------------------|-------------------|-------------------|-------------------|

W W W W
 
 -------------------|-------------------|-------------------|-------------------|
 -------------------|-------------------|-------------------|-------------------|
 -------------------|-------------------|-------------------|-------------------|
 -------------------|-------------------|-------------------|-------------------|
 -------------------|-------------------|-------------------|-------------------|
 -------------------|-------------------|-------------------|-------------------|

W W W W
 
 -------------------|-------------------|-------------------|-------------------|
 -------------------|-------------------|-------------------|-------------------|
 -------------------|-------------------|-------------------|-------------------|
 -------------------|-------------------|-------------------|-------------------|
 -------------------|-------------------|-------------------|-------------------|
 -------------------|-------------------|-------------------|-------------------|

W W W W
 
 -------------------|-------------------|-------------------|-------------------|
 -------------------|-------------------|-------------------|-------------------|
 -------------------|-------------------|-------------------|-------------------|
 -------------------|-------------------|-------------------|-------------------|
 -------------------|-------------------|-------------------|-------------------|
 -------------------|-------------------|-------------------|-------------------|

W W W
 
 -------------------|-------------------||--------------------|
 -------------------|-------------------||--------------------|
 -------------------|-------------------||*-------------------|
 -------------------|-------------------||*-------------------|
 -------------------|-------------------||--------------------|
 -------------------|-------------------||--------------------|

W W W
 
 -------------------|-------------------|--------------------||
 -------------------|-------------------|--------------------||
 -------------------|-------------------|-------------------*||
 -------------------|-------------------|-------------------*||
 -------------------|-------------------|--------------------||
 -------------------|-------------------|--------------------||

W W W W
 
 -------------------|-------------------|-------------------|-------------------|
 -------------------|-------------------|-------------------|-------------------|
 -------------------|-------------------|-------------------|-------------------|
 -------------------|-------------------|-------------------|-------------------|
 -------------------|-------------------|-------------------|-------------------|
 -------------------|-------------------|-------------------|-------------------|

W W E E E E E E E E
 
 -------------------|-------------------|-----------1-----0-----3--|
 -------------------|-------------------|-----3--------------------|
 -------------------|-------------------|--------------------------|
 -------------------|-------------------|--0-----0-----0-----0-----|
 -------------------|-------------------|--------------------------|
 -------------------|-------------------|--------------------------|

[E] [E] [E] [E] [E] [E] [E] [E] [E] [E] [E] [E] [E] [E] [E] [E]  
 
 -----1-----0--------------|-----------1-----0--------|
 -----------------1-----3--|-----3-----------------1--|
 --------------------------|--------------------------|
 --0-----0-----0-----0-----|--0-----0-----0-----0-----|
 --------------------------|--------------------------|
 --------------------------|--------------------------|

E E E E E E E E W W
 
 --------------------------|-------------------|-------------------|
 -----------3-----1-----3--|-------------------|-------------------|
 -----3--------------------|-------------------|-------------------|
 --0-----0-----0-----0-----|-------------------|-------------------|
 --------------------------|-------------------|-------------------|
 --------------------------|-------------------|-------------------|

W W E E E E E E E E
 
 -------------------|-------------------|-----------1-----0-----3--|
 -------------------|-------------------|-----3--------------------|
 -------------------|-------------------|--------------------------|
 -------------------|-------------------|--0-----0-----0-----0-----|
 -------------------|-------------------|--------------------------|
 -------------------|-------------------|--------------------------|

[E] [E] [E] [E] [E] [E] [E] [E] [E] [E] [E] [E] [E] [E] [E] [E]  
 
 -----1-----0--------------|-----------1-----0--------|
 -----------------1-----3--|-----3-----------------1--|
 --------------------------|--------------------------|
 --0-----0-----0-----0-----|--0-----0-----0-----0-----|
 --------------------------|--------------------------|
 --------------------------|--------------------------|

E E E E E E E E W W
 
 --------------------------|-------------------|-------------------|
 -----------3-----1-----3--|-------------------|-------------------|
 -----3--------------------|-------------------|-------------------|
 --0-----0-----0-----0-----|-------------------|-------------------|
 --------------------------|-------------------|-------------------|
 --------------------------|-------------------|-------------------|

W W W W
 
 -------------------|-------------------|-------------------|-------------------|
 -------------------|-------------------|-------------------|-------------------|
 -------------------|-------------------|-------------------|-------------------|
 -------------------|-------------------|-------------------|-------------------|
 -------------------|-------------------|-------------------|-------------------|
 -------------------|-------------------|-------------------|-------------------|

W W W W
 
 -------------------|-------------------|-------------------|-------------------|
 -------------------|-------------------|-------------------|-------------------|
 -------------------|-------------------|-------------------|-------------------|
 -------------------|-------------------|-------------------|-------------------|
 -------------------|-------------------|-------------------|-------------------|
 -------------------|-------------------|-------------------|-------------------|

W W W W
 
 -------------------|-------------------|-------------------|-------------------|
 -------------------|-------------------|-------------------|-------------------|
 -------------------|-------------------|-------------------|-------------------|
 -------------------|-------------------|-------------------|-------------------|
 -------------------|-------------------|-------------------|-------------------|
 -------------------|-------------------|-------------------|-------------------|

W W W W
 
 -------------------|-------------------|-------------------|-------------------|
 -------------------|-------------------|-------------------|-------------------|
 -------------------|-------------------|-------------------|-------------------|
 -------------------|-------------------|-------------------|-------------------|
 -------------------|-------------------|-------------------|-------------------|
 -------------------|-------------------|-------------------|-------------------|

W W W W
 
 -------------------|-------------------|-------------------|-------------------|
 -------------------|-------------------|-------------------|-------------------|
 -------------------|-------------------|-------------------|-------------------|
 -------------------|-------------------|-------------------|-------------------|
 -------------------|-------------------|-------------------|-------------------|
 -------------------|-------------------|-------------------|-------------------|

W W W W
 
 -------------------|-------------------|-------------------|-------------------|
 -------------------|-------------------|-------------------|-------------------|
 -------------------|-------------------|-------------------|-------------------|
 -------------------|-------------------|-------------------|-------------------|
 -------------------|-------------------|-------------------|-------------------|
 -------------------|-------------------|-------------------|-------------------|

W W W W
 
 -------------------|-------------------|-------------------|-------------------|
 -------------------|-------------------|-------------------|-------------------|
 -------------------|-------------------|-------------------|-------------------|
 -------------------|-------------------|-------------------|-------------------|
 -------------------|-------------------|-------------------|-------------------|
 -------------------|-------------------|-------------------|-------------------|

W W W W
 
 -------------------|-------------------|-------------------|-------------------|
 -------------------|-------------------|-------------------|-------------------|
 -------------------|-------------------|-------------------|-------------------|
 -------------------|-------------------|-------------------|-------------------|
 -------------------|-------------------|-------------------|-------------------|
 -------------------|-------------------|-------------------|-------------------|

W W W W
 
 -------------------|-------------------|-------------------|-------------------|
 -------------------|-------------------|-------------------|-------------------|
 -------------------|-------------------|-------------------|-------------------|
 -------------------|-------------------|-------------------|-------------------|
 -------------------|-------------------|-------------------|-------------------|
 -------------------|-------------------|-------------------|-------------------|

W W W W
 
 -------------------|-------------------|-------------------|-------------------|
 -------------------|-------------------|-------------------|-------------------|
 -------------------|-------------------|-------------------|-------------------|
 -------------------|-------------------|-------------------|-------------------|
 -------------------|-------------------|-------------------|-------------------|
 -------------------|-------------------|-------------------|-------------------|

W W W W
 
 -------------------|-------------------|-------------------|-------------------|
 -------------------|-------------------|-------------------|-------------------|
 -------------------|-------------------|-------------------|-------------------|
 -------------------|-------------------|-------------------|-------------------|
 -------------------|-------------------|-------------------|-------------------|
 -------------------|-------------------|-------------------|-------------------|

W W W W
 
 -------------------|-------------------|-------------------|-------------------|
 -------------------|-------------------|-------------------|-------------------|
 -------------------|-------------------|-------------------|-------------------|
 -------------------|-------------------|-------------------|-------------------|
 -------------------|-------------------|-------------------|-------------------|
 -------------------|-------------------|-------------------|-------------------|

W W E E E E E E E E
 
 -------------------|-------------------|-----------1-----0-----3--|
 -------------------|-------------------|-----3--------------------|
 -------------------|-------------------|--------------------------|
 -------------------|-------------------|--0-----0-----0-----0-----|
 -------------------|-------------------|--------------------------|
 -------------------|-------------------|--------------------------|

[E] [E] [E] [E] [E] [E] [E] [E] [E] [E] [E] [E] [E] [E] [E] [E]  
 
 -----1-----0--------------|-----------1-----0--------|
 -----------------1-----3--|-----3-----------------1--|
 --------------------------|--------------------------|
 --0-----0-----0-----0-----|--0-----0-----0-----0-----|
 --------------------------|--------------------------|
 --------------------------|--------------------------|

[E] [E] [E] [E] [E] [E] [E] [E] [E] [E] [E] [E] [E] [E] [E] [E]  
 
 --------------------------|-----------1-----0-----3--|
 -----------3-----1-----3--|-----3--------------------|
 -----3--------------------|--------------------------|
 --0-----0-----0-----0-----|--0-----0-----0-----0-----|
 --------------------------|--------------------------|
 --------------------------|--------------------------|

[E] [E] [E] [E] [E] [E] [E] [E] [E] [E] [E] [E] [E] [E] [E] [E]  
 
 -----1-----0--------------|-----------1-----0--------|
 -----------------1-----3--|-----3-----------------1--|
 --------------------------|--------------------------|
 --0-----0-----0-----0-----|--0-----0-----0-----0-----|
 --------------------------|--------------------------|
 --------------------------|--------------------------|

[E] [E] [E] [E] [E] [E] [E] [E] [E] [E] [E] [E] [E] [E] [E] [E]  
 
 --------------------------|-----------1-----0-----3--|
 -----------3-----1-----3--|-----3--------------------|
 -----3--------------------|--------------------------|
 --0-----0-----0-----0-----|--0-----0-----0-----0-----|
 --------------------------|--------------------------|
 --------------------------|--------------------------|

[E] [E] [E] [E] [E] [E] [E] [E] [E] [E] [E] [E] [E] [E] [E] [E]  
 
 -----1-----0--------------|-----------1-----0--------|
 -----------------1-----3--|-----3-----------------1--|
 --------------------------|--------------------------|
 --0-----0-----0-----0-----|--0-----0-----0-----0-----|
 --------------------------|--------------------------|
 --------------------------|--------------------------|

[E] [E] [E] [E] [E] [E] [E] [E] [E] [E] [E] [E] [E] [E] [E] [E]  
 
 --------------------------|-----------1-----0-----3--|
 -----------3-----1-----3--|-----3--------------------|
 -----3--------------------|--------------------------|
 --0-----0-----0-----0-----|--0-----0-----0-----0-----|
 --------------------------|--------------------------|
 --------------------------|--------------------------|

[E] [E] [E] [E] [E] [E] [E] [E] [E] [E] [E] [E] [E] [E] [E] [E]  
 
 -----1-----0--------------|-----------1-----0--------|
 -----------------1-----3--|-----3-----------------1--|
 --------------------------|--------------------------|
 --0-----0-----0-----0-----|--0-----0-----0-----0-----|
 --------------------------|--------------------------|
 --------------------------|--------------------------|

^
E E E E E E E E W W
 
 --------------------------|--1----------------|--L----------------||
 -----------3-----1-----3--|--3----------------|--L----------------||
 -----3--------------------|--2----------------|--L----------------||
 --0-----0-----0-----0-----|--0----------------|--L----------------||
 --------------------------|-------------------|-------------------||
 --------------------------|-------------------|-------------------||

Duration Legend
 
 ---------------

W - whole
H - half
Q - quarter
E - 8th
S - 16th
T - 32nd
X - 64th
. - note dotted
|-n-| - n-tuplets
Tablature Legend
 
 ----------------

L - tied note
x - dead note
g - grace note
(n) - ghost note
> - accentuded note
NH - natural harmonic
AH - artificial harmonic
TH - tapped harmonic
SH - semi harmonic
PH - pitch harmonic
h - hammer on
p - pull off
b - bend
br - bendRelease
pb - preBend
pbr - preBendRelease
brb - bendReleaseBend
\n/ - tremolo bar dip
\n - tremolo bar dive
-/n - tremolo bar Release up
/n\ - tremolo bar inverted dip
/n - tremolo bar return
-\n - tremolo bar Release down
S - shift slide
s - legato slide
/ - slide into from below or out of upwards
\ - slide into from above or out of downwards
~ - vibrato
W - wide vibrato
tr - trill
TP - tremolo picking
T - tapping
S - slap
P - pop
< - fade in
^ - brush up
v - brush down

Important: The song above is NOT stored on the Chordie server. The original song is hosted at www.guitaretab.com. Chordie works as a search engine and provides on-the-fly formatting. Chordie does not index songs against artists'/composers' will. To remove this song please click here.

Text color:
Chord color:
Chord grids: 
Font size:    
Page size: 

E
Rate #1 of 1 versions

Jango Player

Login - add to songbook

SHARE PAGE  




You need to log in to post comments