Guitar Tabs, Chords and Lyrics
Major upgrade!! After one year development the new version of Chordie is now online! Please give feedback.


Propaganda  Sepultura

As recorded by Sepultura
(From the 1993 Album CHAOS A.D.)
Transcribed by Doetje2
Words by Max Cavalera Music by Max Cavalera, Andreas Kisser, Igor Cavalera, Paulo
Xisto Pinto Junior
Gtr I (Eb Ab Db Gb Bb Eb) - 'Untitled'
Gtr II (Eb Ab Db Gb Bb Eb) - 'Untitled'
Gtr III (Eb Ab Db Gb Bb Eb) - 'Untitled'
Intro
Moderate Rock Q=102
N.C.
[4/4] Gtr I
S S S S S S S S S S S S S S S S 3x
 
 ||--0----------------------0-----------------------||
 ||o---18p17h18p17h18p17h18---18p17h18p17h18p17h18-o||
 ||-------------------------------------------------||
 ||-------------------------------------------------||
 ||o-----------------------------------------------o||
 ||-------------------------------------------------||

S S S S S S S S S S S S S S E
 
 |-0----------------------0---------------------|
 |---18p17h18p17h18p17h18---18p17h18p17h18p17\--|
 |----------------------------------------------|
 |----------------------------------------------|
 |----------------------------------------------|
 |----------------------------------------------|

Faster Q=154
[E5]Gtrs I, II[G5F#G#5]
W +H +E E E E
 
 |----------|------------------|
 |----------|------------------|
 |----------|------------------|
 |-2--------|-(2)----(2)-------|
 |-2--------|-(2)----(2)-5-4-6-|
 |-0--------|-(0)----(0)-3-2-4-|

N.C. G5F#G#5 E5
 
 PM------------------------------------------------|

S S S S S S S S S S S S S S S S S S S S S S S S E E E E 4x Q Q H
 
 ||----------------------------------|--------------------------||------------||
 ||o---------------------------------|-------------------------o||------------||
 ||----------------------------------|--------------------------||------------||
 ||----------------------------------|--------------------------||------------||
 ||o---------------------------------|-------------------5-4-6-o||-2----------||
 ||--0-0-0-0-0-0-0-0-0-0-0-0-0-0-0-0-|-0-0-0-0-0-0-0-0-0-3-2-4--||-0----------||

Verse
N.C. G5F#G#5
 
 PM------------------------------------------------|

S S S S S S S S S S S S S S S S S S S S S S S S E E E E 4x
 
 ||----------------------------------|--------------------------||
 ||o---------------------------------|-------------------------o||
 ||----------------------------------|--------------------------||
 ||----------------------------------|--------------------------||
 ||o---------------------------------|-------------------5-4-6-o||
 ||--0-0-0-0-0-0-0-0-0-0-0-0-0-0-0-0-|-0-0-0-0-0-0-0-0-0-3-2-4--||

[E5]Gtr[Bb5] I[F#F5F#5] [Bb5] [E5] [Bb5] [F#F5F#5] [Bb5] [G5F#G#5]
Q Q +E E E E H.. +E Q Q +E E E E H +E E E E
 
 |------------------|------------------|------------------|----------------||
 |------------------|------------------|------------------|----------------||
 |------------------|------------------|------------------|----------------||
 |------------------|------------------|------------------|----------------||
 |-2---8--(8)-4-3-4s|=8-----------(8)\-|-2---8--(8)-4-3-4s|=8----(8)-5-4-6-||
 |-0---6--(6)-2-1-2s|=6-----------(6)\-|-0---6--(6)-2-1-2s|=6----(6)-3-2-4-||

|
| Gtr II
| Q Q E E E E H Q. +E Q Q E E E E H +E E E E
 
 |------------------|------------------|------------------|----------------||
 |------------------|------------------|------------------|----------------||
 |------------------|------------------|------------------|----------------||
 |------------------|------------------|------------------|----------------||
 |-2--/8------4-3-4s|=8------8----(8)\-|-2--/8------4-3-4s|=8----(8)-5-4-6-||
 |-0--/6---0--2-1-2s|=6------6----(6)\-|-0--/6---0--2-1-2s|=6----(6)-3-2-4-||

Verse
N.C. G5F#G#5
Gtrs I, II
 
 PM------------------------------------------------|

S S S S S S S S S S S S S S S S S S S S S S S S E E E E 4x
 
 ||----------------------------------|--------------------------||
 ||o---------------------------------|-------------------------o||
 ||----------------------------------|--------------------------||
 ||----------------------------------|--------------------------||
 ||o---------------------------------|-------------------5-4-6-o||
 ||--0-0-0-0-0-0-0-0-0-0-0-0-0-0-0-0-|-0-0-0-0-0-0-0-0-0-3-2-4--||

Chorus
[E5]Gtrs I[B5C5B5BbB5Bb5], II[E5] [B5C5B5BbB5Bb5] [E5] [B5C5B5BbB5Bb5]
 
 PM--| PM--| PM--|

E E E S S E S S Q E E E S S E S S Q E E E S S E S S Q
 
 |--------------------|--------------------|---------------------|
 |--------------------|--------------------|---------------------|
 |--------------------|--------------------|---------------------|
 |-------4s5-4-3s4-3--|-------4s5-4-3s4-3--|-------4s5-4-3s4-3---|
 |-2-2-2-2s3-2-1s2-1--|-2-2-2-2s3-2-1s2-1--|-2-2-2-2s3-2-1s2-1---|
 |-0-0-0--------------|-0-0-0--------------|-0-0-0---------------|

N.C. E5 B5C5B5BbB5Bb5 E5 B5C5B5BbB5Bb5
Gtr I
~ PM--| PM--|
S S S S S S S S S S E Q E E E S S E S S Q E E E S S E S S Q
 
 |----------------------------|--------------------|--------------------|
 |----------------------------|--------------------|--------------------|
 |----------------------------|--------------------|--------------------|
 |----------------------------|-------4s5-4-3s4-3--|-------4s5-4-3s4-3--|
 |----------------------------|-2-2-2-2s3-2-1s2-1--|-2-2-2-2s3-2-1s2-1--|
 |-0-0-0-0-0-0-0-0-0-0-0---4--|-0-0-0--------------|-0-0-0--------------|

|
| Gtr II
| ~ PM--| PM--|
| S S S S S S S S S S S S Q E E E S S E S S Q E E E S S E S S Q
 
 |----------------------------|--------------------|--------------------|
 |----------------------------|--------------------|--------------------|
 |----------------------------|--------------------|--------------------|
 |----------------------------|-------4s5-4-3s4-3--|-------4s5-4-3s4-3--|
 |----------------------------|-2-2-2-2s3-2-1s2-1--|-2-2-2-2s3-2-1s2-1--|
 |-0-0-0-0-0-0-0-0-0-0-0-0-4--|-0-0-0--------------|-0-0-0--------------|

E5 B5C5B5BbB5Bb5 N.C. E5 Bb5 F#F5F#5
 
 PM--| PM--------------|

E E E S S E S S Q S S S S E S S S S E Q Q Q +E E E E
 
 |---------------------|----------------------------|-------------------|
 |---------------------|----------------------------|-------------------|
 |---------------------|----------------------------|-------------------|
 |-------4s5-4-3s4-3---|----------------------------|-------------------|
 |-2-2-2-2s3-2-1s2-1---|----------------------------|-2---8--(8)-4-3-4s=|
 |-0-0-0---------------|-0-0-0-0-0-0-0-0-0-3s==15\--|-0---6--(6)-2-1-2s=|

|
 
 | PM--| PM------------------|

| E E E S S E S S E E S S S S E S S S S S S Q Q Q E E E E
 
 |---------------------|----------------------------|-------------------|
 |---------------------|----------------------------|-------------------|
 |---------------------|----------------------------|-------------------|
 |-------4s5-4-3s4-3---|----------------------------|-------------------|
 |-2-2-2-2s3-2-1s2-1-0-|----------------------------|-2--/8------4-3-4s=|
 |-0-0-0---------------|-0-0-0-0-0-0-0-0-0-0-0-18\--|-0--/6---0--2-1-2s=|

[Bb5]H.. +E [E5]Q [Bb5] Q +E [F#F5F#5]E E E [Bb5]H +E [G5F#G#5]E E E
 
 |----------------|------------------|----------------||
 |----------------|------------------|----------------||
 |----------------|------------------|----------------||
 |----------------|------------------|----------------||
 |-8---------(8)\-|-2---8--(8)-4-3-4s|=8----(8)-5-4-6-||
 |-6---------(6)\-|-0---6--(6)-2-1-2s|=6----(6)-3-2-4-||

|
| H.. +E Q Q E E E E H +E E E E
 
 |----------------|------------------|----------------||
 |----------------|------------------|----------------||
 |----------------|------------------|----------------||
 |----------------|------------------|----------------||
 |-8---------(8)\-|-2--/8------4-3-4s|=8----(8)-5-4-6-||
 |-6---------(6)\-|-0--/6---0--2-1-2s|=6----(6)-3-2-4-||

Verse
N.C. G5F#G#5
Gtrs I, II
 
 PM------------------------------------------------|

S S S S S S S S S S S S S S S S S S S S S S S S E E E E 4x
 
 ||----------------------------------|--------------------------||
 ||o---------------------------------|-------------------------o||
 ||----------------------------------|--------------------------||
 ||----------------------------------|--------------------------||
 ||o---------------------------------|-------------------5-4-6-o||
 ||--0-0-0-0-0-0-0-0-0-0-0-0-0-0-0-0-|-0-0-0-0-0-0-0-0-0-3-2-4--||

Chorus
[E5]Gtrs I[B5C5B5BbB5Bb5], II[E5] [B5C5B5BbB5Bb5] [E5] [B5C5B5BbB5Bb5]
 
 PM--| PM--| PM--|

E E E S S E S S Q E E E S S E S S Q E E E S S E S S Q
 
 |--------------------|--------------------|---------------------|
 |--------------------|--------------------|---------------------|
 |--------------------|--------------------|---------------------|
 |-------4s5-4-3s4-3--|-------4s5-4-3s4-3--|-------4s5-4-3s4-3---|
 |-2-2-2-2s3-2-1s2-1--|-2-2-2-2s3-2-1s2-1--|-2-2-2-2s3-2-1s2-1---|
 |-0-0-0--------------|-0-0-0--------------|-0-0-0---------------|

N.C. E5 B5C5B5BbB5Bb5 E5 B5C5B5BbB5Bb5
Gtr I
~ PM--| PM--|
S S S S S S S S S S E Q E E E S S E S S Q E E E S S E S S Q
 
 |--------------------------|--------------------|--------------------|
 |--------------------------|--------------------|--------------------|
 |--------------------------|--------------------|--------------------|
 |--------------------------|-------4s5-4-3s4-3--|-------4s5-4-3s4-3--|
 |--------------------------|-2-2-2-2s3-2-1s2-1--|-2-2-2-2s3-2-1s2-1--|
 |-0-0-0-0-0-0-0-0-0-0-0-4--|-0-0-0--------------|-0-0-0--------------|

|
| Gtr II
| ~ PM--| PM--|
| S S S S S S S S S S E Q E E E S S E S S Q E E E S S E S S Q
 
 |--------------------------|--------------------|--------------------|
 |--------------------------|--------------------|--------------------|
 |--------------------------|--------------------|--------------------|
 |--------------------------|-------4s5-4-3s4-3--|-------4s5-4-3s4-3--|
 |--------------------------|-2-2-2-2s3-2-1s2-1--|-2-2-2-2s3-2-1s2-1--|
 |-0-0-0-0-0-0-0-0-0-0-0-4--|-0-0-0--------------|-0-0-0--------------|

[E5] [B5C5B5BbB5Bb5] [E5]  
PM--|[2/4]
E E E S S E S S Q E E E E
 
 |--------------------|---------||
 |--------------------|---------||
 |--------------------|---------||
 |-------4s5-4-3s4-3--|---------||
 |-2-2-2-2s3-2-1s2-1--|-2-2-2-2-||
 |-0-0-0--------------|-0-0-0-0-||

|
 
 | PM--| PM----|

| E E E S S E S S Q E E E E
 
 |--------------------|---------||
 |--------------------|---------||
 |--------------------|---------||
 |-------4s5-4-3s4-3--|---------||
 |-2-2-2-2s3-2-1s2-1--|-2-2-2-2-||
 |-0-0-0--------------|-0-0-0-0-||

A5G#E5 C5 B5N.B5BbN.BbA5 A5G#E5
[4/4]  
 
 PM--------| PM PM PM--------|

[a] [E] [E] [E] [E] [E] [E] [E] [E] [a] [E] [E] [E] [E] [E] [E] [E] [E] [a] [E] [E] [E] [E] [E] [E] [E] [E]  
 
 |-------------------|--------------------|-------------------|
 |-------------------|--------------------|-------------------|
 |-------------------|--------------------|-------------------|
 |-------------------|--------------------|-------------------|
 |-6s7s6-2-2-2-2-2-2-|-9s10s9---9s8---8s7-|-6s7s6-2-2-2-2-2-2-|
 |-4s5s4-0-0-0-0-0-0-|-7s=8s7-0-7s6-0-6s5-|-4s5s4-0-0-0-0-0-0-|

|
 
 | PM--------| PM PM PM--------|

| E E E E E E E E E E E E E E E E E E E E E E E E
 
 |-------------------|--------------------|-------------------|
 |-------------------|--------------------|-------------------|
 |-------------------|--------------------|-------------------|
 |-------------------|--------------------|-------------------|
 |---7s6-2-2-2-2-2-2-|---10s9---9s8---8s7-|---7s6-2-2-2-2-2-2-|
 |---5s4-0-0-0-0-0-0-|----8s7-0-7s6-0-6s5-|---5s4-0-0-0-0-0-0-|

F#F5E5F#F5E5F#5 F5 A5G#E5 C5 B5N.B5BbN.BbA5
 
 PM--------| PM PM

E E E E E E S S E a E E E E E E E E a E E E E E E E E
 
 |-------------------|-------------------|--------------------|
 |-------------------|-------------------|--------------------|
 |-------------------|-------------------|--------------------|
 |-------------------|-------------------|--------------------|
 |-4-3-2-4-3-2-4-4-3-|-6s7s6-2-2-2-2-2-2-|-9s10s9---9s8---8s7-|
 |-2-1-0-2-1-0-2-2-1-|-4s5s4-0-0-0-0-0-0-|-7s=8s7-0-7s6-0-6s5-|

|
 
 | PM--------| PM PM

| E E E E E E E E E E E E E E E E E E E E E E E E
 
 |-------------------|-------------------|--------------------|
 |-------------------|-------------------|--------------------|
 |-------------------|-------------------|--------------------|
 |-------------------|-------------------|--------------------|
 |-4-3-2-4-3-2-4---3-|---7s6-2-2-2-2-2-2-|---10s9---9s8---8s7-|
 |-2-1-0-2-1-0-2---1-|---5s4-0-0-0-0-0-0-|----8s7-0-7s6-0-6s5-|

[A5G#E5] [F#F5E5F#F5E5F#5] [F5] 
[4/4]  
 
 PM--------|

a E E E E E E E E E E E E E E S S E
 
 |-------------------|-------------------||
 |-------------------|-------------------||
 |-------------------|-------------------||
 |-------------------|-------------------||
 |-6s7s6-2-2-2-2-2-2-|-4-3-2-4-3-2-4-4-3-||
 |-4s5s4-0-0-0-0-0-0-|-2-1-0-2-1-0-2-2-1-||

|
 
 | PM--------|

| E E E E E E E E E E E E E E E E
 
 |-------------------|-------------------||
 |-------------------|-------------------||
 |-------------------|-------------------||
 |-------------------|-------------------||
 |---7s6-2-2-2-2-2-2-|-4-3-2-4-3-2-4---3-||
 |---5s4-0-0-0-0-0-0-|-2-1-0-2-1-0-2---1-||

|
| Gtr III
| W H Q E E
 
 |-------------------|-------------------||
 |-------------------|-----------------0-||
 |-------------------|-------------------||
 |-------------------|-------------------||
 |-------------------|-------------------||
 |-------------------|-------------------||

Guitar Solo
Gt[A5]r II[G#5]I[E5]
\0.5/ \0.5/ \0.5/ \0.5/ \0.5/ \0.5/
~~~~~ ~~~~~ ~~~~~ ~~~~~
S S S S S S S S S S S S S S S S
 
 |-----------------------------------------------------------|

|---5p0h5p0h5p====0h5p====0h5p====0h5p====0h5p====0h5p====0h|
 
 |-----------------------------------------------------------|
 |-----------------------------------------------------------|
 |-----------------------------------------------------------|
 |-----------------------------------------------------------|

|
| Gtr I
 
 | PM--------------------------------------|

| a E E E E E E E E
 
 |-----------------------------------------------------------|
 |-----------------------------------------------------------|
 |-----------------------------------------------------------|
 |-----------------------------------------------------------|
 |-6s7s==6---2-------2-------2-------2-------2-------2-------|
 |-4s5s==4---0-------0-------0-------0-------0-------0-------|

|
| Gtr II
 
 | PM--------------------------------------|

| E E E E E E E E
 
 |-----------------------------------------------------------|
 |-----------------------------------------------------------|
 |-----------------------------------------------------------|
 |-----------------------------------------------------------|
 |---7s==6---2-------2-------2-------2-------2-------2-------|
 |---5s==4---0-------0-------0-------0-------0-------0-------|

C5 B5 N.C. B5 Bb5 N.C. Bb5 A5
\0.5/ \0.5/ \0.5/ \0.5/ \0.5/
~~~~~ ~~~~~ ~~~~~ ~~~~~ ~~~~~
 
 |--3--| |-3-|

S S T T S S S T T S S S T T T S S S S S S
 
 |--------------------------------------------------------------------|

|----5p0h5p3p0h5p====0h5p3p0h5p====0h5p3p0h5p====0h5p====0h5p====0h==|
 
 |--------------------------------------------------------------------|
 |--------------------------------------------------------------------|
 |--------------------------------------------------------------------|
 |--------------------------------------------------------------------|

|
| PM PM
| a E E E E E E E E
 
 |--------------------------------------------------------------------|
 |--------------------------------------------------------------------|
 |--------------------------------------------------------------------|
 |--------------------------------------------------------------------|
 |-9s10s======9-------------9s======8---------------8s======7---------|
 |-7s=8s======7-------0-----7s======6-------0-------6s======5---------|

|
| PM PM
| E E E E E E E E
 
 |--------------------------------------------------------------------|
 |--------------------------------------------------------------------|
 |--------------------------------------------------------------------|
 |--------------------------------------------------------------------|
 |---10s======9-------------9s======8---------------8s======7---------|
 |----8s======7-------0-----7s======6-------0-------6s======5---------|

[A5]\0.5/ [G#5]\0.5/ [E5] /0.5__\4___/2.5_______/ \4.5________
~~~~~ ~~~~~ ~~~~~~~~~~~
S S S S S S S S a T +T +S +Q a +E
 
 |------------------------------------------------------------------|
 |---5p====0h5p====0h5p0h5p0----------------------------------------|
 |---------------------------5-----5---(5)----(5)-(5)s==21-----(21)-|
 |------------------------------------------------------------------|
 |------------------------------------------------------------------|
 |------------------------------------------------------------------|

|
 
 | PM----------------------------------------|

| a E E E E E E E E
 
 |------------------------------------------------------------------|
 |------------------------------------------------------------------|
 |------------------------------------------------------------------|
 |------------------------------------------------------------------|
 |-6s7s======6-------2---2---------2---------------2--2----------2--|
 |-4s5s======4-------0---0---------0---------------0--0----------0--|

|
 
 | PM----------------------------------------|

| E E E E E E E E
 
 |------------------------------------------------------------------|
 |------------------------------------------------------------------|
 |------------------------------------------------------------------|
 |------------------------------------------------------------------|
 |---7s======6-------2---2---------2---------------2--2----------2--|
 |---5s======4-------0---0---------0---------------0--0----------0--|

[F#5] [F5] / [E5] \0.5/ [F#5] \0.5/ [F5] \0.5/ \0.5/ [E5] \0.5/[F#5] [F#F5]
~~~~~~~~~~~~~~~~~~~~~~~~~~~~~~~~~~~~~~~~~~~~~~
 
 |------3------| |--------3--------|

+E +E a E +E +E +E +E +E +Q
 
 |------------------------------------------------------------------------|
 |------------------------------------------------------------------------|
 |-(21)-(21)-21s23-(23)------(23)----(23)----(23)------(23)----(23)\------|
 |------------------------------------------------------------------------|
 |------------------------------------------------------------------------|
 |------------------------------------------------------------------------|

|
| E E E E E E S S E
 
 |------------------------------------------------------------------------|
 |------------------------------------------------------------------------|
 |------------------------------------------------------------------------|
 |------------------------------------------------------------------------|
 |---4----3------2---------4-----------3-------------2-----------4---4-3--|
 |---2----1------0---------2-----------1-------------0-----------2---2-1--|

|
| E E E E E E E E
 
 |------------------------------------------------------------------------|
 |------------------------------------------------------------------------|
 |------------------------------------------------------------------------|
 |------------------------------------------------------------------------|
 |---4----3------2---------4-----------3-------------2-----------4-----3--|
 |---2----1------0---------2-----------1-------------0-----------2-----1--|

[A5] [G#5] [E5]  
 
 |----6-----| |-----6-----| |-3--| |-3--|

S S S S S S S S S S S S S S S S S S S S S S
 
 |-----7h8h10p8p7h8h10p8-7h8h10p8p7h8h10p8p7h10p8p7h10-|
 |-----------------------------------------------------|
 |-----------------------------------------------------|
 |-----------------------------------------------------|
 |-----------------------------------------------------|
 |-----------------------------------------------------|

|
 
 | PM------------------------------|

| a E E E E E E E E
 
 |-----------------------------------------------------|
 |-----------------------------------------------------|
 |-----------------------------------------------------|
 |-----------------------------------------------------|
 |-6s7s=====6-----2------2------2---2------2------2----|
 |-4s5s=====4-----0------0------0---0------0------0----|

|
 
 | PM------------------------------|

| E E E E E E E E
 
 |-----------------------------------------------------|
 |-----------------------------------------------------|
 |-----------------------------------------------------|
 |-----------------------------------------------------|
 |---7s=====6-----2------2------2---2------2------2----|
 |---5s=====4-----0------0------0---0------0------0----|

C5 B5 N.C. B5 Bb5 N.C. Bb5 A5
 
 |-3-| |-3-| |----6----|

S S S S T T S S S S S S S S S S S S S S S
 
 |-------------------------------------------------|
 |----7h8p7---7h8h10-8p7s5-----7s10p8p7p5-----7p0--|
 |----------9--------------7p4------------7p4------|
 |-------------------------------------------------|
 |-------------------------------------------------|
 |-------------------------------------------------|

|
| PM PM
| a E E E E E E E E
 
 |-------------------------------------------------|
 |-------------------------------------------------|
 |-------------------------------------------------|
 |-------------------------------------------------|
 |-9s10s==9----------9s====8----------8s====7------|
 |-7s=8s==7---0------7s====6------0---6s====5------|

|
| PM PM
| E E E E E E E E
 
 |-------------------------------------------------|
 |-------------------------------------------------|
 |-------------------------------------------------|
 |-------------------------------------------------|
 |---10s==9----------9s====8----------8s====7------|
 |----8s==7---0------7s====6------0---6s====5------|

[A5] [G#5] [E5] [F#5] [F5] [E5] [F#5] [F5E5F#5] [F5]  
 
 |3| |-3-| |3| |-3-| |-3-| |-3-|

S.T S. T E S S S S E S S S S S S S S S S S S S S S S S S E E E S S
 
 |----------------------------------------|-------------------------(0)---------|
 |---8p7p5--------------------------------|-------------------------(0)---------|
 |----------7-4h5h7p5p4---4h5h7p5h7-------|-------------------------(0)---12-12-|
 |----------------------7-----------7p4h5h|=7p5p4-------------------(0)---------|
 |----------------------------------------|-------7p4-2h3h5p3p2-0-0-------------|
 |----------------------------------------|-------------------------------------|

|
 
 | PM----------------------|

| a E E E E E E E E E E E E E E S S E
 
 |----------------------------------------|-------------------------------------|
 |----------------------------------------|-------------------------------------|
 |----------------------------------------|-------------------------------------|
 |----------------------------------------|-------------------------------------|
 |-6s7s==6----2---2-----2---2-----2---2---|-4-----3---2---4-----3-2--4--4--3----|
 |-4s5s==4----0---0-----0---0-----0---0---|-2-----1---0---2-----1-0--2--2--1----|

|
 
 | PM----------------------|

| E E E E E E E E E E E E E E E E
 
 |----------------------------------------|-------------------------------------|
 |----------------------------------------|-------------------------------------|
 |----------------------------------------|-------------------------------------|
 |----------------------------------------|-------------------------------------|
 |---7s==6----2---2-----2---2-----2---2---|-4-----3---2---4-----3-2--4-----3----|
 |---5s==4----0---0-----0---0-----0---0---|-2-----1---0---2-----1-0--2-----1----|

[Bb5]Gtr III
E. S E E +E E E S S
 
 |-------------------------------|
 |----------------------------14-|
 |-12--12-14-12-(12)-14-12-14-14-|
 |-------------------------------|
 |-------------------------------|
 |-------------------------------|

|
| Gtrs I, II
| H. Q
 
 |-------------------------------|
 |-------------------------------|
 |-------------------------------|
 |-------------------------------|
 |--8--------------------8-------|
 |--6--------------------6-------|

[A5] E. S +E [E5] E E E E E [Bb5] E S S E S S E E E E
 
 |------------------------------|--------------------------16-16-|
 |-14--14-(14)----12------------|--------------15-15----15-15-15-|
 |-14--14-(14)-14------------9/-|-16--16-16-16-16-16-16-16-16-16-|
 |--------------------14\-11----|--------------------------------|
 |------------------------------|--------------------------------|
 |------------------------------|--------------------------------|

|
| Q. E +Q Q H. Q
 
 |------------------------------|--------------------------------|
 |------------------------------|--------------------------------|
 |------------------------------|--------------------------------|
 |------------------------------|--------------------------------|
 |--7-----------2-(2)------2----|--8------------------------8----|
 |--5-----------0-(0)------0----|--6------------------------6----|

[A5] E E E [E5] E +E S S Q
 
 |-16--16-16-17-(17)-17h19-------|
 |-15--15-15-15-(15)-15----------|
 |-16--16-16-16-(16)-16----------|
 |---------------------------|
 |-------------------------------|
 |-------------------------------|

|
| Q. E +H
 
 |-------------------------------|
 |-------------------------------|
 |-------------------------------|
 |-------------------------------|
 |--7---------2--(2)-------------|
 |--5---------0--(0)-------------|

[Bb5]|-3-|[A5] [E5]
S S S E S S S S E E Q E E E S S S S S S Q
 
 |-0---0-0-0-0-0---0-0-0--|-0--0-----------------0---|
 |-3h5-5-5-5-5-3h5-5-5-3--|-0--0-----------------0---|
 |------------------------|------2-2h3p=2p=0---------|
 |------------------------|------------------5p2-2---|
 |------------------------|--------------------------|
 |------------------------|--------------------------|

|
| H. Q Q. E +Q Q
 
 |------------------------|--------------------------|
 |------------------------|--------------------------|
 |------------------------|--------------------------|
 |------------------------|--------------------------|
 |-8-------------------8--|-7------2---(2)-------2---|
 |-6-------------------6--|-5------0---(0)-------0---|

[Bb5]  
 
 |--3--| |-3--| |-3--| |-----6------|

S T T T E S S S S S S S S S S S S S S S S
 
 |----12p10-------12p10p0-12p10p0-0-12p10p0-12p10p0-12p10p0-|
 |----------12p10-------------------------------------------|
 |----------------------------------------------------------|
 |----------------------------------------------------------|
 |----------------------------------------------------------|
 |----------------------------------------------------------|

|
| H. Q
 
 |----------------------------------------------------------|
 |----------------------------------------------------------|
 |----------------------------------------------------------|
 |----------------------------------------------------------|
 |-8-----------------------------------------8--------------|
 |-6-----------------------------------------6--------------|

[A5] [E5]  
 
 |-----6------|

S S E S S S S S S S S S S +Q
 
 |-12p10p0-12p10p0-12p10p0-12p=10p0-12-(12)\----||
 |----------------------------------------------||
 |----------------------------------------------||
 |----------------------------------------------||
 |----------------------------------------------||
 |----------------------------------------------||

|
| Q. E +H
 
 |----------------------------------------------||
 |----------------------------------------------||
 |----------------------------------------------||
 |----------------------------------------------||
 |--7---------------2------(2)------------------||
 |--5---------------0------(0)------------------||

N.C.
Gtrs I, II
 
 PM---------------------------------------------

E E E E E S S S S S S E E E E E S S S S S S
 
 |-----------------------|-----------------------|
 |-----------------------|-----------------------|
 |-----------------------|-----------------------|
 |-----------------------|-----------------------|
 |-----------------------|-----------------------|
 |-0-0-0-0-0-1-1-1-1-1-1-|-0-0-0-0-0-1-1-1-1-1-1-|
 ---------------------------------------------|

E E E E E S S S S S S E E E E E S S S S S S
 
 |-----------------------|-----------------------||
 |-----------------------|-----------------------||
 |-----------------------|-----------------------||
 |-----------------------|-----------------------||
 |-----------------------|-----------------------||
 |-0-0-0-0-0-1-1-1-1-1-1-|-0-0-0-0-0-1-1-1-1-1-1-||

Q=77
[E5]Gtr I
 
 PM-----------------------------------|

E E E S S S S E E S S
 
 ||------------------------------------------------|
 ||o-----------------------------------------------|
 ||------------------------------------------------|
 ||--2-----2-----2-----2--2----2--2-----2-----2--2-|
 ||o-2-----2-----2-----2--2----2--2-----2-----2--2-|
 ||--0-----0-----0-----0--0----0--0-----0-----0--0-|

|
| Gtr II
| S S S S S S S S S S S S S S S S
 
 ||--0----------------------0----------------------|
 ||o---18p17h18p17h18p17h18---18p17h18p17h18p17h18-|
 ||------------------------------------------------|
 ||------------------------------------------------|
 ||o-----------------------------------------------|
 ||------------------------------------------------|
 PM-----------------------------------|

E E E S S S S E E S S
 
 |-------------------------------------------------||
 |------------------------------------------------o||
 |-------------------------------------------------||
 |-2-----2-----2-----2--2----2--2-----2-----2--2---||
 |-2-----2-----2-----2--2----2--2-----2-----2--2--o||
 |-0-----0-----0-----0--0----0--0-----0-----0--0---||

|
| S S S S S S S S S S S S S S S S
 
 |-0----------------------0------------------------||
 |---18p17h18p17h18p17h18---18p17h18p17h18p17h18--o||
 |-------------------------------------------------||
 |-------------------------------------------------||
 |------------------------------------------------o||
 |-------------------------------------------------||

Tempo I Q=102
Q Q H
 
 |-----------------------------------------------|
 |-----------------------------------------------|
 |-----------------------------------------------|
 |-2---------------------------------------------|
 |-2---------------------------------------------|
 |-0---------------------------------------------|

|
| S S S S S S S S S S S S S S S S
 
 |-0----------------------0----------------------|
 |---18p17h18p17h18p17h18---18p17h18p17h18p17h18-|
 |-----------------------------------------------|
 |-----------------------------------------------|
 |-----------------------------------------------|
 |-----------------------------------------------|

W
 
 |----------------------------------------------||
 |----------------------------------------------||
 |----------------------------------------------||
 |----------------------------------------------||
 |----------------------------------------------||
 |----------------------------------------------||

|
| S S S S S S S S S S S S S S E
 
 |-0----------------------0---------------------||
 |---18p17h18p17h18p17h18---18p17h18p17h18p17\--||
 |----------------------------------------------||
 |----------------------------------------------||
 |----------------------------------------------||
 |----------------------------------------------||

Slower Q=77
[E5]  
 
 PM----------------| PM----------------| PM----------------|

E E E S S S S E E S S E E E S S S S E E S S E E E S S S S E E S S
 
 |-----------------------|-----------------------|-----------------------|
 |-----------------------|-----------------------|-----------------------|
 |-----------------------|-----------------------|-----------------------|
 |-2-2-2-2-2---2-2-2-2-2-|-2-2-2-2-2---2-2-2-2-2-|-2-2-2-2-2---2-2-2-2-2-|
 |-2-2-2-2-2---2-2-2-2-2-|-2-2-2-2-2---2-2-2-2-2-|-2-2-2-2-2---2-2-2-2-2-|
 |-0-0-0-0-0---0-0-0-0-0-|-0-0-0-0-0---0-0-0-0-0-|-0-0-0-0-0---0-0-0-0-0-|

<
 
 PM----------------|

E E E S S S S E S S E Wx3 W
 
 |-------------------------|------------|-0----||
 |-------------------------|------------|-0----||
 |---------------------(4)-|------------|-0----||
 |-2-2-2-2-2---2-2-2-2--2--|------------|-0----||
 |-2-2-2-2-2---2-2-2-2--2--|------------|-0----||
 |-0-0-0-0-0---0-0-0-0--0--|------------|-0----||

[Bb5]Gtrs I, II
 
 PM--------------------------|

E S S E T T T T S S S S S S S S
 
 ||----------------------------------|
 ||o---------------------------------|
 ||----------------------------------|
 ||----------------------------------|
 ||o-8-------------------------------|
 ||--6-0-0-0-0-0-0-0-0-0-0-0-0-0-0-0-|

[A5] [BbE5]  
 
 PM--------------------------|

E S S E T T T T S S S S S S S S 3x E E Q H
 
 |----------------------------------||-------------*|
 |---------------------------------o||-------------*|
 |----------------------------------||-------------*|
 |----------------------------------||-------------*|
 |-7-------------------------------o||-8-2---------*|
 |-5-0-0-0-0-0-0-0-0-0-0-0-0-0-0-0--||-6-0---------*|

Duration Legend
 
 ---------------
 W - whole; H - half; Q - quarter; E - 8th; S - 16th; T - 32nd; X - 64th; a - acciaccatura

+ - note tied to previous; . - note dotted; .. - note double dotted
Uncapitalized letters represent notes that are staccato (1/2 duration)
Irregular groupings are notated above the duration line
Duration letters will always appear directly above the note/fret number it represents the
duration for. Duration letters with no fret number below them represent rests. Multi-
bar rests are notated in the form Wxn, where n is the number of bars to rest for. Low
melody durations appear below the staff
Tablature Legend
 
 ----------------

h - hammer-on
p - pull-off
b - bend
pb - pre-bend
r - bend release (if no number after the r, then release immediately)
/\ - slide into or out of (from/to "nowhere")
s - legato slide
S - shift slide
- natural harmonic
(n) - artificial harmonic
n(n) - tapped harmonic
~ - vibrato
tr - trill
T - tap
TP - trem. picking
PM - palm muting
\n/ - tremolo bar dip; n = amount to dip
\n - tremolo bar down
n/ - tremolo bar up
/n\ - tremolo bar inverted dip
= - hold bend; also acts as connecting device for hammers/pulls
- volume swell (louder/softer)
x - on rhythm slash represents muted slash
o - on rhythm slash represents single note slash
Misc Legend
 
 -----------

| - bar
|| - double bar
||o - repeat start
o|| - repeat end
*| - double bar (ending)
: - bar (freetime)
$ - Segno
& - Coda
Tempo markers - = BPM(8/16=s8/s16), where s8 = swing 8ths, s16 = swing 16ths

Important: The song above is NOT stored on the Chordie server. The original song is hosted at www.guitaretab.com. Chordie works as a search engine and provides on-the-fly formatting. Chordie does not index songs against artists'/composers' will. To remove this song please click here.

Text color:
Chord color:
Chord grids: 
Font size:    
Page size: 

A5 Bb5 E E5 F#5 F5 G#5
Rate #1 of 2 versions

Jango Player

Login - add to songbook

SHARE PAGE  



You need to log in to post comments