Guitar Tabs, Chords and Lyrics
Major upgrade!! After one year development the new version of Chordie is now online! Please give feedback.


Sepulnation   Sepultura

 
 tuning C----G----D#----A#----F----A#

 


 


 [2] [1/2]  


 


 NOTE : IN THIS SONG


 NECESSARY USING


 0.12 IN THE ALL


 STRINGS AND THIS TUNING .


 


 NOTE2 :


 


 ( ) = GHOST NOTE


 ~ /\ ~ = BEND UP


 ~ \/ ~ = BEND DOWN


 \ = SLIDE DOWN


 / = SLIDE UP


 P = PULL OFF


 H = HAMMER ON


 ~ ~ = HELD BENT


 


 INTRO AND SOLO PART.1


 


 

 
 C|---------------------------|-------------------|
 G|---------------------------|-------------------|
 D#|--------------------------|-------------------|
 A#|--------------------------|-------------------|
 F|---------------------------|-------------------|
 A#|-4-4-4--8-8~-8-\4-4-4--8..|3X 5-5-5/-4-4-4-4-4|

 


 REPEAT


 MAIN RIFF


 


 

 
 C|------------------------|
 G|------------------------|
 D#|-----------------------|
 A#|-4H5P4-4-4H7P4--4-5----|
 F|------------------------|
 A#|-----------------------|

 


 


 CHORUS 1


 


 

 
 C|----------------------------------------------|
 G|----------------------------------------------|
 D#|---------------------------------------------|
 A#|-8-8-5-9-|-9-9-9-9-|-8-8-5-9--|-9-9--5xx-5xx-| x2
 F|--8-8-5-9-|-9-9-9-9-|-8-8-5-9--|-9-9--5xx-5xx-|
 A#|-8-8-5-9-|-9-9-9-9-|-8-8-5-9--|-9-9--5xx-5xx-|

 


 


 CHORUS 2


 


 

 
 C|---------|---------|---------|---------|
 G|---------|---------|---------|---------|
 D#|--------|---------|---------|---------|
 A#|8-8-8-8-|-8-8-8-8-|-8-8-8-8-|-5-5-8-8-|
 F|-8-8-8-8-|-8-8-8-8-|-8-8-8-8-|-5-5-8-8-|
 A#|8-8-8-8-|-8-8-8-8-|-8-8-8-8-|-5-5-8-8-|

 


 figure out da solo for yourself


 


 UNDER THE SOLO


 

 
 C|---------|
 G|---------|
 D#|--------|

 


 A#|8-8-5-9-|


 F|-8-8-5-9-|


 A#|8-8-5-9-|


 


 

 
 C|----------|
 G|----------|
 D#|---------|
 A#|---------|

 


 F|--55-0X-5-|


 A#|-55-0X-5-|


 PM.......


 


 SOLO


 


 

 
 C|-----------------------------------|--------------------------------|----------------------------------|
 G|--11B-11B~-11B-11BR~-11H12P11--11B-|-8-/7--8--5-H7-8--8/-11H12--11B-|-11B---7/-11-\11/7-7~~-11--7H8P7-7|
 D#|----------------------------------|--------------------------------|----------------------------------|
 A#|----------------------------------|--------------------------------|-=--------------------------------|
 F|-----------------------------------|--------------------------------|----------------------------------|
 A#|----------------------------------|--------------------------------|----------------------------------|

 


 


 USING WAH WAH


 WHAMMY


 


 

 
 C|-------------------|----------------|-------------------------|------------------|--18~~~---|
 G|--11~~~~-----------|--~--14~-15-14--|15-~~--14-15--14-15--1718|-'17-18---20B-20~-|----------|
 D#|-10~~~~-----------|--~~------------|-----------------------==|--16-17-----------||||||||||||
 A#|-MAIN RIFF 4X-----|-------------------------------------------------------------||||||||||||
 F|-------------------|-------------------------------------------------------------||||||||||||
 A#|--8---------------|----------------|-------------------------|------------------||||||||||||
 C|------------------------------------------|

 


 G|--151515151515/16161616/17171717/18181818-|


 D#|-131313131313/14141414/15151515/16161616-|


 

 
 A#|-----------------------------------------|
 F|------------------------------------------|
 A#|-----------------------------------------|
 C|-16/2/0---17-/0--19//////0/1/2/00---------|
 G|-15///0----------18-----/00000000---------|
 D#|-----------------------------------------|
 A#|-----------------------------------------|
 F|------------------------------------------|
 A#|---------------------------------55544455|

 


 PM.............


 


 BRIGDE


 


 

 
 C|-----------|
 G|-----------|
 D#|----------|
 A#|----------|
 F|-----------|

 


 A#|454-4-5-4-|


 


 

 
 C|----------------|
 G|----------------|
 D#|---------------|
 a#|-4-55-04-5-444-|
 F |-4-55-04-5-444-|
 A#|-4-55-04-5-444-|

 


 OUTRO


 


 

 
 C |---------------|
 G |---------------|
 D#|---------------|

 


 A#|-4H5P4-4-4H7P4-|


 

 
 F |---------------|
 A#|---------------|

 


 


 END SONG


 


 

 
 C|-----------|
 G|-----------|
 D|-----------|
 A|-8-8-8-8---|
 F|-8-8-8-8---|
 A|-8-8-8-8---|
 pm------


Important: The song above is NOT stored on the Chordie server. The original song is hosted at www.guitaretab.com. Chordie works as a search engine and provides on-the-fly formatting. Chordie does not index songs against artists'/composers' will. To remove this song please click here.

This song is displayed as text-only. Transposing and tuning is only available for chordpro-songs.
Rate #3 of 3 versions

Jango Player

Login - add to songbook

SHARE PAGE  




You need to log in to post comments