Guitar Tabs, Chords and Lyrics
Server problems seems to be fixed. Chordie has been experiencing problems with songs disappearing. These issues now seems to be fixed, but still verifying the fix. If you find anything strange, please email admin@chordie.com.


Little Bit of Red  Serena Ryder

G#m/A Bsus2 F# A(barre) C#m E F#m A C#5 G#sus4 E5 A7
 
 e|--x-----2---2----5-------x---0---x---0---x----x----x--0-|
 B|--0-----2---2----5-------5---0---x---2---x----4----x--2-|
 G|--4-----4---3----6-------6---1---2---2---6----6----9--0-|
 D|--6-----4---4----7-------6---2---4---2---6----6----9--2-|
 A|--0-----2---4----7-------4---2---4---0---4----6----7--0-|
 E|--x-----2---2----5-------x---0---x---x---x----x----x--x-|

Intro (one variation; can play around with it by moving around your ring and pinky)
[G#m/A]v v v ^ v ^ ^ v ^ v ^ v ^ [Bsus2]v v ^ v ^ ^ ^ v ^ v ^ v ^
 
 e|-x---x---x-x-x-x---x-x-x-x-x-x-0-2---2-2-2-2-x-2---2-2-2-2-2-2-0-|
 B|-0---0---0-0-0-0---0-0-0-0-0-0-0-2---2-2-2-2-x-2---2-2-2-2-2-2-0-|
 G|-4---4---4-6-4-4---4-4-6-6-4-4-0-4---4-4-4-4-x-4---4-4-4-4-x-x-0-|
 D|-6---6---6-6-6-6---6-6-6-6-6-6-0-4---4-2-4-4-x-4---4-4-2-4-6-4-0-| x2
 A|-0---0---0-0-0-0---0-0-0-0-0-0-0-2---2-2-2-2-x-2---2-2-2-2-2-2-0-|
 E|-x---x---x-x-x-x---x-x-x-x-x-x-0-x---x-x-x-x-x-x---x-x-x-x-x-x-0-|

[G#m/A] [Bsus2]  
Ooooh
[G#m/A] [Bsus2]  
[G#m/A]Hey you say you want to start over again, [Bsus2]like i ever wanted it to be any different
[G#m/A]I've been watching all your colours [Bsus2]fade - to blue
[G#m/A]Said you'd come back [Bsus2]like I wanted you, wanted you
G#m/A F# A(barre)
Stop pretending everything's alright
Oh-oh-oh [C#m]baby [E]blue oh [F#m]baby [A]blue
come [C#m]here I'm gonna [E]smear another [F#m]colour over [A]you
get [C#m]out of [E]bed you little [F#m]sleepy [A]head
your [C#m]black and [E]white needs a [F#m]little bit of red
your [C#m]black and [E]white needs a [F#m]little bit of red
[G#m/A]Oooh[Bsus2]
[G#m/A]Couldn't handle pressure life had put you through
[Bsus2]thought you might have bit a little more than you could chew.
[G#m/A]no i don't believe it when you say[Bsus2] i will make it up to you
[G#m/A]Said you'd come back, d[Bsus2]idn't want you to, want you to
G#m/A F# A(barre)
Still pretending everything's alright
Oh-oh-oh [C#m]baby [E]blue oh [F#m]baby [A]blue
come [C#m]here I'm gonna [E]smear another [F#m]colour over [A]you
get [C#m]out of [E]bed you little [F#m]sleepy [A]head
your [C#m]black and [E]white needs a [F#m]little bit of red
your [C#m]black and [E]white needs a [F#m]little bit of red
A(barre) C#5 G#sus4 E5
Baby blue oh-oh
A(barre) F#
Baby blue oh-oh-oh
[G#m/A] [Bsus2] [A7]  
Oh-oh-oh [C#m]baby [E]blue oh [F#m]baby [A]blue
come [C#m]here I'm gonna [E]smear another [F#m]colour over [A]you
get [C#m]out of [E]bed you little [F#m]sleepy [A]head
your [C#m]black and [E]white needs a [F#m]little bit of red
your [C#m]black and [E]white needs a [F#m]little bit of red
[G#m/A]Ooooh[Bsus2]

Important: The song above is NOT stored on the Chordie server. The original song is hosted at www.guitaretab.com. Chordie works as a search engine and provides on-the-fly formatting. Chordie does not index songs against artists'/composers' will. To remove this song please click here.

Text color:
Chord color:
Chord grids: 
Font size:    
Page size: 

A A7 Bsus2 C#m E F#m G#m/A
Rate #1 of 3 versions

Login - add to songbook

SHARE PAGE  



You need to log in to post comments