Guitar Tabs, Chords and Lyrics
Server problems seems to be fixed. Chordie has been experiencing problems with songs disappearing. These issues now seems to be fixed, but still verifying the fix. If you find anything strange, please email admin@chordie.com.


Alpha   Sevendust

 
 C#|--------------------------------|
 G#|--------------------------------|
 E |--------------------------------|
 B |-1-0-0000x-0-0-000x-0-0-000-00x-| X4
 F#|-1-0-0000x-0-0-000x-0-0-000-00x-|
 B |-1-0-0000x-0-0-000x-0-0-000-00x-|

 


 [MMMM] [M] [M] [MMM] [M] [M] [MMM] [MM]  


 Verse 1:


 


 

 
 C#|------------------------------------------|
 G#|------------------------------------------|
 E |-----7---8---5---5/7-------7---8---[5]----|
 B |-----x---x---x---x-x---0---x---x---[x]x8f-|
 F#|-----5---6---3---3/5---0---5---6---[3]----|\
 B |-000---0---0---0-----0-0-0---0---0--------| \

 


 MMM M M M M M M M x2


 [/]  

 
 C#|------------------------------------------|/
 G#|------------------------------------------|
 E |-----7---8---5---5/7-------7---8---[10]---|
 B |-----x---x---x---x-x---0---x---x---[x]-x4s|
 F#|-----5---6---3---3/5---0---5---6---[8]----|
 B |-000---0---0---0-----0-0-0---0---0--------|

 


 [MMM] [M] [M] [M] [M] [M] [M] [M] 


 

 
 C#|----------------------|
 G#|----------------------|
 E |----------------------|
 B |-[6]----[1]----[1]----|

 


 F#|-[6]x8s-[1]x4s-[1]x8f-|


 

 
 B |-[6]----[1]----[1]----|

 


 [M]  


 Chorus 1:


 


 

 
 C#|--------------------------------------|
 G#|--------------------------------------|
 E |--------------------------------------|
 B |-0-0--------7h8-5h7-3h5-2h3-0h2-------|
 F#|-0-0----------------------------3-3/5-|
 B |-0-0-[0]x10---------------------------|\

 


 m \


 x2


 

 
 C#|--------------------------------| /
 G#|--------------------------------| /
 E |--------------------------------|
 B |-0-0----------------------------|
 F#|-0-0--------3h5-5h6-1h3-0h[1]x8f|
 B |-0-0-[0]x10---------------------|

 


 [m]  


 Break 1:


 


 

 
 C#|--------------------------------|
 G#|--------------------------------|
 E |--------------------------------|
 B |-1-0-0000--0-0-000--0-0-00-310x-|
 F#|-1-0-0000--0-0-000--0-0-00-310x-|
 B |-1-0-0000--0-0-000--0-0-00-310x-|

 


 [mmmm] [m] [m] [mmm] [m] [m] [mm]  


 Verse 2:


 


 

 
 C#|------------------------------------------|
 G#|------------------------------------------|
 E |-----7---8---5---5/7-------7---8---[5]----|
 B |-----x---x---x---x-x---0---x---x---[x]x8f-|
 F#|-----5---6---3---3/5---0---5---6---[3]----| \
 B |-000---0---0---0-----0-0-0---0---0--------| \

 


 MMM M M M M M M M x2


 [/]  

 
 C#|-------------------------------------------| /
 G#|-------------------------------------------|
 E |-----7---8---5---5/7-------7----8---[10]---|
 B |-----x---x---x---x-x---0---x----x---[x]-x4s|
 F#|-----5---6---3---3/5---0---5----6---[8]----|
 B |-000---0---0---0-----0-0-0---0---0---------|

 


 [MMM] [M] [M] [M] [M] [M] [M] [M] 


 

 
 C#|-----------------------------|
 G#|-----------------------------|
 E |-----------------------------|
 B |-[6]---[6]---[1]----1x1x1x1x-|

 


 F#|-[6]x4s[6]x8f[1]x4s-1x1x1x1x-|


 

 
 B |-[6]---[6]---[1]----1x1x1x1x-|

 


 


 Chorus 2:


 


 

 
 C#|----------------------------------------|
 G#|----------------------------------------|
 E |----------------------------------------|
 B |-0-0--------7h8-5h7-3h5-2h3-0h2p0-------|
 F#|-0-0------------------------------3-3/5-|
 B |-0-0-[0]x10-----------------------------|\

 


 m \


 x2


 

 
 C#|--------------------------------| /
 G#|--------------------------------| /
 E |--------------------------------|
 B |-0-0----------------------------|
 F#|-0-0--------3h5-5h6-1h3-0h[1]x8f|
 B |-0-0-[0]x10---------------------|

 


 [m]  


 Break 2:


 


 

 
 C#|--------------------------------|
 G#|--------------------------------|
 E |--------------------------------|
 B |-1-0-0000x-0-0-000x-0-0-000-00x-| X2
 F#|-1-0-0000x-0-0-000x-0-0-000-00x-|
 B |-1-0-0000x-0-0-000x-0-0-000-00x-|

 


 [MMMM] [M] [M] [MMM] [M] [M] [MMM] [MM]  


 Solo (Lead Guitar Not Tabbed):


 


 

 
 C#|-----------------------------|
 G#|-----------------------------|
 E |-----------------------------|
 B |-1-0-0000-0-0-000-0-0-00-000-|
 F#|-1-0-0000-0-0-000-0-0-00-000-|
 B |-1-0-0000-0-0-000-0-0-00-000-|

 


 [mmmm] [m] [m] [mmm] [m] [m] [mm] [mm]  


 

 
 C#|-------------------------------------|
 G#|-------------------------------------|
 E |-------------------------------------|
 B |-1-0-0000--0-0-000--0-0-0000-1-03-05-|
 F#|-1-0-0000--0-0-000--0-0-0000-1-03-05-|
 B |-1-0-0000--0-0-000--0-0-0000-1-03-05-|

 


 [mmmm] [m] [m] [mmm] [m] [m] [mmmm] [m] [m] 


 

 
 C#|------------------------------|
 G#|------------------------------|
 E |------------------------------|
 B |-1-0-0000-0-0-000-0-0-00-310x-|
 F#|-1-0-0000-0-0-000-0-0-00-310x-|
 B |-1-0-0000-0-0-000-0-0-00-310x-|

 


 [mmmm] [m] [m] [mmm] [m] [m] [mm]  


 

 
 C#|-------------------------------------|
 G#|-------------------------------------|
 E |-------------------------------------|
 B |-1-0-0000x-0-0-000x-0-0-0000-1-03-05-|
 F#|-1-0-0000x-0-0-000x-0-0-0000-1-03-05-|
 B |-1-0-0000x-0-0-000x-0-0-0000-1-03-05-|

 


 [MMMM] [M] [M] [MMM] [M] [M] [MMM] [m] [m] 


 Break 3:


 


 

 
 C#|-----------------------------|
 G#|-----------------------------|
 E |-7-7---8-5-5--7-7---8-8------|
 B |-x-x---x-x-x--x-x---x-x------|
 F#|-5-5---6-3-3--5-5---6-6------|
 B |----000-0-0-0----000---[0]x8f|\

 


 MMM M M M MMM M \


 x2


 

 
 C#|--------------------------| /
 G#|--------------------------| /
 E |-7-7---8-5-5--[10]--[8]---|
 B |-x-x---x-x-x--[x]x8f[x]x8f|
 F#|-5-5---6-3-3--[8]---[6]---|
 B |----000-0-0-0-------------|

 


 Chorus [MMM]3:[M] [M] [M]


 


 

 
 C#|--------------------------------------|
 G#|--------------------------------------|
 E |--------------------------------------|
 B |-0-0x-------7h8-5h7-3h5-2h3-0h2-------|
 F#|-0-0x---------------------------3-3/5-|
 B |-0-0x---------------------------------|
 C#|--------------------------------|
 G#|--------------------------------|
 E |--------------------------------|
 B |-0-0x---------------------------|
 F#|-0-0x-------3h5-5h6-1h3-0h[1]x8f|
 B |-0-0x---------------------------|
 C#|-----------------------------------------|
 G#|-----------10/11--8/10-6-8-5-4-----------|
 E |------------x-x---x-x--x-x-x-x-7-5-5-5/7-|
 B |-0-0x-------7/8---5/7--3/5-2/3-x-x-x-x-x-|
 F#|-0-0x--------------------------5/7-3-3/5-|
 B |-0-0x------------------------------------|
 C#|----------------------------------|
 G#|----------------------------------|
 E |------------5/6-7/8-3/5-2/[3]----2|
 B |-0-0x-------x-x-x-x-x-x-x-[x]----x|
 F#|-0-0x-------3/5-5/6-1/3-0h[1]x7f-0|
 B |-0-0x-----------------------------|
 C#|------------------------------------------|
 G#|------------10/11--8/10-6-8-5-4-----------|
 E |-------------x-x---x-x--x-x-x-x-7-5-5-5/7-|
 B |-0-0x--------7/8---5/7--3/5-2/3-x-x-x-x-x-|
 F#|-0-0x---------------------------5/7-3-3/5-|
 B |-0-0x-[0]x10------------------------------|

 


 [m]  


 

 
 C#|----------------------------------|
 G#|----------------------------------|
 E |------------5/6-7/8-3/5-2/[3]----2|
 B |-0-0x-------x-x-x-x-x-x-x-[x]----x|
 F#|-0-0x-------3/5-5/6-1/3-0h[1]x7f-0|
 B |-0-0x-[0]x10----------------------|

 


 [m]  


 

 
 C#|--------------------------------|
 G#|-----------10/11-8/10-6-8-5-6~5~|
 E |------------x-x--x-x--x-x-x-x-x-|
 B |-0-0--------7/8--5/7--3/5-2/3~2~|
 F#|-0-0----------------------------|
 B |-0-0-[0]x10---------------------|

 


 [m]  


 

 
 C#|-----------------------------------|
 G#|-----------------------------------|
 E |------------5/6-7/8-3/5-2/[3]----2x|
 B |-0-0x-------x-x-x-x-x-x-x-[x]----xx|
 F#|-0-0x-------3/5-5/6-1/3-0h[1]x7f-0x|
 B |-0-0x-[0]x10-----------------------|

 


 [m]  


 Outro:


 


 

 
 C#|-----------------------------|
 G#|-----------------------------|
 E |-----------------------------|
 B |-1-0-0000-0-0-000-0-0-00-000-|
 F#|-1-0-0000-0-0-000-0-0-00-000-|
 B |-1-0-0000-0-0-000-0-0-00-000-|

 


 [mmmm] [m] [m] [mmm] [m] [m] [mm] [mm]  


 

 
 C#|-------------------------------------|
 G#|-------------------------------------|
 E |-------------------------------------|
 B |-1-0-0000--0-0-000--0-0-0000-1-03-05-|
 F#|-1-0-0000--0-0-000--0-0-0000-1-03-05-|
 B |-1-0-0000--0-0-000--0-0-0000-1-03-05-|

 


 [mmmm] [m] [m] [mmm] [m] [m] [mmmm] [m] [m] 


 

 
 C#|------------------------------|
 G#|------------------------------|
 E |------------------------------|
 B |-1-0-0000-0-0-000-0-0-00-311x-|
 F#|-1-0-0000-0-0-000-0-0-00-311x-|
 B |-1-0-0000-0-0-000-0-0-00-311x-|

 


 [mmmm] [m] [m] [mmm] [m] [m] [mm]  


 

 
 C#|-------------------------------------|
 G#|-------------------------------------|
 E |-------------------------------------|
 B |-1-0-0000--0-0-000--0-0-0000-1-03-05-|
 F#|-1-0-0000--0-0-000--0-0-0000-1-03-05-|
 B |-1-0-0000--0-0-000--0-0-0000-1-03-05-|

 


 [mmmm] [m] [m] [mmm] [m] [m] [mmmm] [m] [m] 


 

 
 C#|----------|
 G#|----------|
 E |----------|


Important: The song above is NOT stored on the Chordie server. The original song is hosted at www.guitaretab.com. Chordie works as a search engine and provides on-the-fly formatting. Chordie does not index songs against artists'/composers' will. To remove this song please click here.

This song is displayed as text-only. Transposing and tuning is only available for chordpro-songs.
Rate #1 of 3 versions

Jango Player

Login - add to songbook

SHARE PAGE  



You need to log in to post comments