Guitar Tabs, Chords and Lyrics
Major upgrade!! After one year development the new version of Chordie is now online! Please give feedback.


Terminator   Sevendust

 
 e[------------------------------------------------------------
 B[------------------------------5~~~~~~~----------------------
 G[--4---4-4-4-4h5p4~~~~~-4h5----------------------------------
 D[------------------------------------------------------------
 A[------------------------------------------------------------
 D[------------------------------------------------------------

 


 


 0:30 Distortion (x4)


 

 
 e[------[-------------]---------------------------------
 B[------[-------------]---------------------------------
 G[------[-------------]---------------------------------
 D[-9p7--[-------------]---------------------------------
 A[-9p7--[-Brief pause-]---------------------------------
 D[-9p7--[-------------]---------------------------------

 


 


 Main riff 0:39 Distortion (x7)


 

 
 e[----------------------------------------------------
 B[----------------------------------------------------
 G[----------------------------------------------------
 D[-----------0------------3b4r3-----------------------
 A[-2---2-2---0-----9p7----3b4r3-----------------------
 D[-4---4-4---0-----9p7----3b4r3-----------------------

 


 PM......


 


 Verse Wah effect, distortion 1:01 (x4)


 

 
 e[----------------------------------------------------
 B[----------------------------------------------------
 G[--12---13----12---14--------------------------------
 D[--x----x-----x----x---------------------------------
 A[--10---11----10---12--------------------------------
 D[----------------------------------------------------

 


 


 Chorus 1:22 (x2)


 

 
 e[----------------------------------------------------------------------
 B[----------------------------------------------------------------------
 G[----------------------------------------------------------------------
 D[----------------------------------------------------------------------
 A[-2-2-2-2-2-----------------2-2-2-2-2-----------------2-2-2-2----------
 D[-4-4-4-4-4--[Brief Pause]--4-4-4-4-4--[Brief Pause]--4-4-4-4----------

 


 PM........ PM........ PM......


 


 

 
 e[--------------------------------------------------------------------
 B[--------------------------------------------------------------------
 G[--------------------------------------------------------------------
 D[-------------------------------------------0------------------------
 A[-2---2-2---2-2--2--2-2-2-2--3---2-2---2----0--2-2-2-2-2-2-2-2-2-2-2-
 D[-4---4-4---4-4--4--4-4-4-4--5---4-4---4----0--4-4-4-4-4-4-4-4-4-4-4-

 


 PM........................ PM...... PM....................


 


 Main riff 1:45 (x4)


 


 Verse 1:57


 


 Guitar interlude 2:19


 

 
 e[---------------------------------------------------------------------
 B[---------------------------------------------------------------------
 G[---------------------------------------------------------------------
 D[---------3----4-------------------------------3----------------------
 A[-2~~~~~--3----4--x--0-0-0-0-0-0-0h2---2~~~~~~-3---x-x-x-x-x----------
 D[-4~~~~~--3----4--x--0-0-0-0-0-0-0h2---4-------3---x-x-x-x-x----------


Important: The song above is NOT stored on the Chordie server. The original song is hosted at www.guitaretab.com. Chordie works as a search engine and provides on-the-fly formatting. Chordie does not index songs against artists'/composers' will. To remove this song please click here.

This song is displayed as text-only. Transposing and tuning is only available for chordpro-songs.
Rate #1 of 4 versions

Jango Player

Login - add to songbook

SHARE PAGE  




You need to log in to post comments