Guitar Tabs, Chords and Lyrics
Major upgrade!! After one year development the new version of Chordie is now online! Please give feedback.


Fairy Tale  Shaman

 
 E||-----------------------|----------------------|-----------------------|
 B||-----------------------|----------------------|-----------------------|
 G||-----------------------|----------------------|---------------0--2----|
 D||------------------0-2- |--0-------------------|-------0--2------------|
 A||------0----2--3--------|------3-2--0----------|--3--------------------|
 E||-----------------------|----------------------|-----------------------|
 ---------------------|-------------------------|-----------------------|
 ---------------------|-------------------------|-----------------------|
 --0------------------|-------------------------|-----------------------|
 -----2------------2--|--0----------------------|-----------------------|
 ---------------------|-------3-2-3----2-0-2----|-----------3-----------|
 ---------------------|-------------------------|--5-3-5-------5--------|
 -----------------------|----------------------||
 -----------------------|----------------------||
 -----------------------|----------------------||
 ------------------0-2--|--0-------------------||
 ------0----2--3--------|------3-2--0----------||
 -----------------------|----------------------||

[Am]Fairy [C]lady, [G]who s[Am]tands on the walls
Lif[C]e is short[G] and wai[Am]t is long
The s[D]tars, aw[Am]ay, d[G]im with the [F]dawn..[D].
[Am]Fairy l[F]ady, w[G]ho stands[Am] on the walls
[Am]Your [C]tale ha[G]s only[Am] begun
It comes from [C]far, the [G]Nowherel[Am]and
The w[D]ind is b[Am]lowing a s[G]ound so well [F]known.[D]..
[Am]Fairy l[F]ady, y[G]our love [Am]is long gone
[Am]Oh d[G]arli[Em]ng, hear my [Am]soul and heed my cry[G] [Em]
[Am]Cause all my cr[G]ying [Em]may flood a [F]river in my heart[D]
[C]Oh[G], [Bb]life is [F]good
[C]Oh[G], [Bb]life is [F]good
[C]Oh[G], [Bb]life is [F]good...
[Ab]As g[Bb]ood as you wish!"
[Am]Pretty l[C]ady, t[G]he ho[Am]rses are back
Brin[C]ging joy[G] and hap[Am]piness
But a[D]ll of a [Am]sudden the [G]horses are g[F]one[D]
It was only the [F]sound of your [G]heartbeat [Am]alone!
[Am]Oh d[G]arli[Em]ng, hear my [Am]soul and heed my cry[G] [Em]
[Am]Cause all my cr[G]ying [Em]may flood a [F]river in my heart[D]
[C]Oh[G], [Bb]life is [F]good
[C]Oh[G], [Bb]life is [F]good
[C]Oh[G], [Bb]life is [F]good...
[Ab]As g[Bb]ood as a kiss!"
[Ebm]Oh my d[Db]arlin[Bbm]g, now I [Ebm]cannot halt my cri[Db]es[Bbm]
[Ebm]My tears have drow[Db]ned me[Bbm]
And I refu[B]se [Bb]to realise
[Ebm]What's left ar[Db]ound m[Bbm]e, it's all so[Ebm] strange, it's all so [Db]dark[Bbm]
[Ebm]I'm all al[Db]one here[Bbm]
To mend the [B]pieces of my [C#]heart
(piano)
[Am]Little la[C]dy, your [G]tale has an e[Am]nd
For your lov[C]e to the s[G]kies was se[Am]nt
He's t[D]urned into s[Am]parks that [G]shine with the st[F]ars...[D]
...And by [F]night he will [G]always be [F]there
For his l[G]ady to [F]stare
G Am . . . .
And thus he's never died.
________________________________
SHAMAN !!!!!!!!!!!!!!
Andre Matos - vocal
Ricardo Confessori - bateria
Luis Mariutti - baixo
Hugo Mariutti - guitarra

Important: The song above is NOT stored on the Chordie server. The original song is hosted at www.guitaretab.com. Chordie works as a search engine and provides on-the-fly formatting. Chordie does not index songs against artists'/composers' will. To remove this song please click here.

Text color:
Chord color:
Chord grids: 
Font size:    
Page size: 

Ab Am B Bb Bbm C C# D Db Ebm Em F G
Rate #1 of 1 versions

Jango Player

Login - add to songbook

SHARE PAGE  




You need to log in to post comments