Guitar Tabs, Chords and Lyrics
Major upgrade!! After one year development the new version of Chordie is now online! Please give feedback.


For the Longest Time   Sherwood

 
 |------------|
 |------------|
 |--555--555--|
 |--555--555--| X4
 |--333--333--|
 |------------|

 


 


 [Would you wait if I came running bome to you...] 


 


 

 
 |------------|
 |------------|
 |--555--555--|
 |--555--555--| Just repeat and repeat
 |--333--333--|
 |------------|

 


 


 [Distance is never on my side...] 


 


 

 
 |---------------------------------------------------------------------|
 |---------------------------------------------------------------------|
 |--777--777--777--777-------------------------------------------------|
 |--777--777--777--777--777--777--7777--777--555--555--555--555----7~--|
 |--555--555--555--555--777--777--777--777---555--555--555--555----7~--|
 |----------------------555--555--555--555---333--333--333--333----5~--|

 


 


 Plays:


 


 [ !S T R U M_ U P_ A N D_ D O W N! ] 


 

 
 |-------------------------------|
 |-------------------------------|
 |--7777777777-------7777777777--|
 |--7777777777--777--7777777777--|
 |--5555555555--777--5555555555--|
 |--------------555--------------|

 


 


 [ !S T R U M_ U P_ A N D_ D O W N! ] 


 


 [ Verse ]]


 


 [ Would you wait if I wrote you..] 


 


 

 
 |---------------|
 |---------------|

 


 |--77777777777--|


 |--55555555555--|


 |--55555555555--|


 

 
 |---------------|

 


 


 |


 | Continue Verse


 V


 


 [ ... a perfect song...] 


 


 

 
 |---------------|
 |---------------|
 |---------------|

 


 |--77777777777--|


 |--55555555555--|


 |--55555555555--|


 


 |


 | Continue Verse


 V


 


 [...tonigbt.......] 


 


 

 
 |---------------|
 |---------------|
 |---------------|

 


 |--55555555555--|


 |--55555555555--|


 |--33333333333--|


 


 Then continue the tune with the rest of the verse.


 


 [ To make your beart stand still... ] 


 


 

 
 |---------------| * |---------------| * |---------------|
 |---------------| * |---------------| * |---------------|
 |--77777777777--| * |---------------| * |---------------|
 |--55555555555--| * |--77777777777--| * |--55555555555--|
 |--55555555555--| * |--77777777777--| * |--55555555555--|
 |---------------| * |--55555555555--| * |--33333333333--|

 


 


 [ Finisb off of verse ] 


 


 [ Wbooaab! ] 


 


 

 
 |----------|
 |----------|

 


 |--77777~--|


 |--55555~--|


 |--55555~--|


 

 
 |----------|

 


 


 [ Cborus ] 


 


 [ For tbe longest time,... ] 


 


 

 
 |----------------------------|
 |----------------------------|
 |--77777777777---------------|
 |--55555555555--77777777777--| 'Til the end of the Chorus.
 |--55555555555--77777777777--|
 |---------------55555555555--|

 


 


 [ Next Verse] 


 


 [ Tbere are tbings I don't bave tbe patience for... ] 


 


 

 
 |-------------------------------|
 |-------------------------------|
 |--7-7-7-7-7--------------------|
 |--7-7-7-7-7--77777--9-9-9-9-9--| Repeat 'Til Chorus.
 |--5-5-5-5-5--77777--9-9-9-9-9--|
 |-------------55555--7-7-7-7-7--|

 


 


 < Repeat Chorus >


 


 [ Bridge ] 


 


 [ Don't pass me by, give me anotber cbance tonigbt... ] 


 


 

 
 |-------------------------------------------------------|
 |-------------------------------------------------------|
 |-------------------------------------------------------|
 |--4-4-4-4-4-4-4-4---6-6-6-6-6-6-6-6---5-5-5-5-5-5-5-5--|
 |--4-4-4-4-4-4-4-4---6-6-6-6-6-6-6-6---5-5-5-5-5-5-5-5--|
 |--2-2-2-2-2-2-2-2---4-4-4-4-4-4-4-4---3-3-3-3-3-3-3-3--|

 


 


 


 I suggest that when it comes to the


 


 

 
 |---------------------------------|
 |---------------------------------|
 |--7-7-7-7-7----------------------|
 |--7-7-7-7-7--.....--9-9-9-9-9----|
 |--5-5-5-5-5--.....--9-9-9-9-9----|
 |-------------.....--7-7-7-7-7----|


Important: The song above is NOT stored on the Chordie server. The original song is hosted at www.guitaretab.com. Chordie works as a search engine and provides on-the-fly formatting. Chordie does not index songs against artists'/composers' will. To remove this song please click here.

This song is displayed as text-only. Transposing and tuning is only available for chordpro-songs.
Rate #1 of 4 versions

Login - add to songbook

SHARE PAGE  



You need to log in to post comments