Guitar Tabs, Chords and Lyrics
Major upgrade!! After one year development the new version of Chordie is now online! Please give feedback.


I Know Why  Sheryl Crow

Tabbed by: EmeraldEyzs
INTRO: D F G Bb G/B (like this)
GTR 1:
[D] [F] [G] [Bb] [G/B]  
 
 E|---------0--------------1--------|--------3-----3---3-----3---------|------3---------------3--------|
 B|--3---3--3-3-3-x--1-----1--------|--------3-----3---3-----3---------|------3--3------------3-3---0--|
 G|--2-2----2-----x--2-0---0h2-0-0--|--------0-----0---0-----0---------|------0----0----------------0--|
 D|--0---------------3-----3--------|--------0-----0---0-----0---------|---0-------0-------0-----------|
 A|------------------3-----3--------|-------------------------------x--|-1-------------2---------------|
 E|---------------------------------|--3-3-----------3---3-------3--x--|-------------------------------|

|GTR 2 (capo 5)
| A2 C9 D F6 D/F#
 
 E|----0-------------------------0--|----------------------------------|-------------------------------|
 B|---------0----------3---3---3----|--------3-----3---------3-----3---|---3-----3---------3----3------|
 G|--2---2----2---2------0----------|----2-----2---------2-------2-----|-----2-----2---------2----2----|
 D|-------------2------------2------|--0---0-----0---0-----0---0-------|-------3-----3---0----------0--|
 A|--0---------------3--------------|----------------------------------|-------------------------------|
 E|---------------------------------|----------------------------------|--1------------2-------2-------|

VERSE:
[D] They say l[Em]ove keeps on g[G]rowing
It's the [C]one thing that I've f[G]elt I've always k[C]nown
[D] Cause it wouldn't m[Em]atter where you're g[G]oing
Cause w[C]here you are is w[G]here I wanna [C]go
CHORUS:
[D] But I know [F]why the heart gets lo[G]nely
[Bb] Every time you [G/B]give your love a[D]way
[D] And if you t[F]hink that you are o[G]nly
[Bb] A shadow in the [G/B]wind
[Bb] Blowin' round but w[G/B]hen you go and [C]let somebody [G]in
They might fade a[D]way [F] [G]
VERSE:
[D] Tell me [Em]why the road keeps [G]turning
When e[C]verything you w[G]ant is straight ah[C]ead
[D] And every t[Em]hing I thought worth l[G]earning
Is for[C]gotten when I s[G]ee your face in[C]stead
CHORUS:
[D] I know w[F]hy the heart gets lo[G]nely
[Bb] Every time you [G/B]give your love a[D]way
[D] And if you t[F]hink that you are o[G]nly
[Bb] A shadow in the [G/B]wind
[Bb] Blowin' round but w[G/B]hen you go and [C]let somebody [G]in
They might fade a[D]way
BRIDGE:
[F]Ah, you say it'[Em]s so overrated
[G]Holding on to yester[D]day
[F]Along the way, it can ge[Em]t too complicated to s[A]tay [A7sus]
SOLO:
[D] [F] [G] [Bb] [G/B] [Bb] [G/B] [C] [G] 
CHORUS:
[D] I know w[F]hy the heart gets lo[G]nely
[Bb] Every time you [G/B]give your love a[D]way
[D] And if you t[F]hink that you are o[G]nly
[Bb] A shadow in the [G/B]wind
You b[Bb]etter think agai[G/B]n [D]
I know w[F]hy the heart gets lo[G]nely
[Bb] Every time you [G/B]give your love a[D]way
[D] And if you t[F]hink that you are o[G]nly
[Bb] Feathers in the [G/B]wind
[Bb] Blowin' round the [G/B]wind
You l[C]et somebody in[G] they might fade aw[D]ay
[D]Fade away

Important: The song above is NOT stored on the Chordie server. The original song is hosted at www.guitaretab.com. Chordie works as a search engine and provides on-the-fly formatting. Chordie does not index songs against artists'/composers' will. To remove this song please click here.

Text color:
Chord color:
Chord grids: 
Font size:    
Page size: 

A A7sus Bb C D Em F G G/B
Rate #3 of 6 versions

Jango Player

Login - add to songbook

SHARE PAGE  




You need to log in to post comments